Guitar Tabs, Chords and Lyrics
Server problems seems to be fixed. Chordie has been experiencing problems with songs disappearing. These issues now seems to be fixed, but still verifying the fix. If you find anything strange, please email admin@chordie.com.


Stuck Together Pieces  Atoms for Peace

Bass riff
 
 G|------------------------------------------------------|
 D|--9-9---11-11----7-7---9-9----------------------------|
 A|-------------------------------7-7--9-----------------|
 E|---------------------------------------9-(\)-2--------|

or down on a guitar (that c# has to stay :( )
 
 E|------------------------------------------------------|
 B|------------------------------------------------------|
 G|------------------------------------------------------|
 D|------------------------------------------------------|
 A|--2-2--4-4-----0-0--2-2---------------4---------------|
 E|------------------------------0-0--2-----2------------|

The phrases in the verse don't actually form such a full harmony as the chords
written. So on the Verses, the Riff is much more fun to play arund with. But anyway:
[cb]F#m/C#[/cb] Bm7sus2 F#m7 F#m' :|| F#m elsewhere
 
 E|---------------------------------|------9-----|
 B|-(2)------(2)------(2)---(2)-----|------10----|
 G|--2--------2-------(2)---(2)-----|------11----|
 D|--4--------4--------2-----4------|------11----|
 A|--4--------2--------4-----4------|------9-----|
 E|--------------------2-----2------|------------|

"Stuck Together Pieces" by Atoms For Peace
Riff 4x
Verse 1
over the bass riff, by the line.
or if you've to have chords:
( [cb]F#m/C#[/cb] Bm7sus2 F#m7 F#m' )
Our stuck together pieces
The joke is I don't need this
You can hardly tell the difference
Well I know but I don't care
Verse 2
bass riff, or:
( [cb]F#m/C#[/cb] Bm7sus2 F#m7 F#m' )
Grown up together pieces
Our stuck together pieces
A load of near misses
Aw shucks, you got me
Riff 2x
Verse 3
bass riff, or:
( [cb]F#m/C#[/cb] Bm7sus2 F#m7 F#m' )
You can have anything that you want
Except the thing you really want
Go back to where you came from
Go back to what you know
Riff 4x
Bridge
[C#m] Our stuck together pieces
[F#m] Our stuck together pieces
[C#m] Our stuck together pieces
[F#m] Our stuck together pieces
[C#m] Why be rain when you could be sun?
[F#m] Why tie yourself to anyone?
[C#m] Why be here when you'd be somewhere else?
[F#m] Well I know but I don't care
Chorus
[ D F#m Bm C#m ] 
[ D F#m Bm C#m ] 
[ D F#m C#m D ] 
with lyrics:
[D]Ooh..[F#m]. [Bm] [C#m] You don't get away.
You don't get aw[D]ay. You don't get away
You don't get aw[F#m]ay. You don't get away.
You don't get aw[Bm]ay. You don't get away.
You don't get aw[C#m]ay So easily
You don't get aw[D]ay. You don't get away.
You don't get aw[F#m]ay So easily
You don't get aw[C#m]ay. You don't get away.
You don't get aw[D]ay. You don't get away. You don't get away
Riff 3x
with some guitar phrases
Verse 4
bass riff, or:
( [cb]F#m/C#[/cb] Bm7sus2 F#m7 F#m )
Mirror, mirror still the prettiest
To all points of the compass
Just tell us where the money is
On stuck together pieces
Pre Chorus
[D] And a load of near misses
[F#m] And a load of near misses
[Bm] Well I don't want any trouble
[C#m] but my brain is in a tangle.
Chorus
You don't get aw[D]ay. You don't get away.
You don't get aw[F#m]ay so easily.
You don't get aw[Bm]ay. You don't get away.
You don't get aw[C#m]ay so easily.
You don't get aw[D]ay. You don't get away.
You don't get aw[F#m]ay. You don't get away
You don't get aw[C#m]ay, You don't get away
You don't get awa[D]y. You don't get away. You don't get away.
Bridge Outro
|| C#m7 F#m :||

Important: The song above is NOT stored on the Chordie server. The original song is hosted at www.guitaretab.com. Chordie works as a search engine and provides on-the-fly formatting. Chordie does not index songs against artists'/composers' will. To remove this song please click here.

Text color:
Chord color:
Chord grids: 
Font size:    
Page size: 

Bm C#m D F#m
Rate #1 of 4 versions

Login - add to songbook

SHARE PAGE  



You need to log in to post comments