Guitar Tabs, Chords and Lyrics
Major upgrade!! After one year development the new version of Chordie is now online! Please give feedback.


Dame, dame, dame  Attaque 77

Otras canciones
 
 e|-0---11111---| 

El ritmo es complicado..Ojo!
[Dm] [Gm] [A]  
 
 e|-1----3------|
 B|-3----3---3--|
 G|-2----3---3--| preferentemente en quintas
 D|------5---3--|
 A|------5------|
 E|------3------|

[Dm]Hoy en mi ventana brilla el s[Gm]ol
mi coraz[Dm]ón
Un pequeño Riff
 
 e|----------------1--1p0h1------------|
 B|-------------3----------------------|
 G|----------3-------------------------|
 D|-------5----------------------------|
 A|-------5----------------------------|
 E|-------3----------------------------|

se pone triste contemplando la ciudad
[A]por que te va[Dm]s
El verso 2 es igual al 1, al final de este viene otro riff
que viene antes del coro
 
 e|--------------|
 B|--3--3h6p3-3-3|
 G|--------------|
 D|--------------|
 A|--------------|
 E|--------------|

El Coro es mucho mas facil...aunque el ritmo es un poco complicado
[Bb] [F] [C]  
 
 e|-1----1------|
 B|-3----1---1--|
 G|-3----2------|preferentemente en quintas
 D|-3----3---2--|
 A|-1----3---3--|
 E|-1----1------|

To[Bb]das las promesas de mi amor se irán conti[Dm]go
lo olvidar[F]as, lo olvidar[Dm]as[C]
y [Bb]en mi habitación te llorare igual que un ni[Dm]ño
por que te v[F]as,
[A]por que te v[Dm]as
Los versos siguientes son iguales que el 1 y el 2 respectivamente
El punteo del final es el siguiente
 
 e|----------------------------|
 B|----------------------------|
 G|---3-2-0--3h5p3-2-----------| ESTA PARTE SE REPITE 3 VECES
 D|----------------------------|
 A|----------------------------|
 E|----------------------------|
 e|-------------------------------|
 B|-------------------------------|
 G|---3h5p3--0-2---2/7-77-55--3-2-|
 D|-------------------------------|
 A|-------------------------------|
 E|-------------------------------|


Important: The song above is NOT stored on the Chordie server. The original song is hosted at www.guitaretab.com. Chordie works as a search engine and provides on-the-fly formatting. Chordie does not index songs against artists'/composers' will. To remove this song please click here.

Text color:
Chord color:
Chord grids: 
Font size:    
Page size: 

A Bb C Dm F Gm
Rate #2 of 3 versions

Login - add to songbook

SHARE PAGE  




You need to log in to post comments