Guitar Tabs, Chords and Lyrics
Major upgrade!! After one year development the new version of Chordie is now online! Please give feedback.


Like a Stone  Audioslave

Song: Like A Stone
Tabber: hero valente
Intro:
Am* G E7* F X 4
 
 E|--------------|--------------|--------------|--------------|
 B|--------------|--------------|--------------|--------------|
 G|--------------|--------------|--------------|------8----7--|
 D|--8-----------|--10----------|----------7---|----------7---|
 A|----------10--|----------8---|--5-----------|--6-----------|
 E|--------------|--------------|--------------|--------------| 

Verse 1:
Am* G
On a cobweb afternoon
Em7* F
In a room full of emptiness
Am* G
By a freeway I confess
Em7* F
I was lost in the pages
Am* G
Of a book full of death
Em7* F
Reading how we'll die alone
Am* G
And if we're good we'll lay to rest
Em7* F
Anywhere we want to go
Chorus:
[G]In your[Bb] house
[F]I long to [G]be
[G]Room by[Bb] room
[F]Patientl[G]y
[Eb/Bb]I'll wait for you th[G]ere
[F]Like a s[G]tone
[Eb/Bb]I'll wait for you th[G]ere
[D/A]Alone,..[D].
Verse 2:
Am* G
And on my death bed I will pray to
Em7* F
The gods and the angels
Am* G
Like a pagan to anyone who will
Em7* F
Take me to heaven
Am* G
Took to a place I recall
Em7* F
I was there so long ago
Am* G
The sky was bruised, the wine was bled
Em7* F
And there you led me on
Chorus:
[G]In your[Bb] house
[F]I long to [G]be
[G]Room by[Bb] room
[F]Patientl[G]y
[Eb/Bb]I'll wait for you th[G]ere
[F]Like a s[G]tone
[Eb/Bb]I'll wait for you th[G]ere
[D/A]Alone,..[D].
 
 E|--------------------------------------------------------------------------|
 B|--------------------------------------------------------------------------|
 G|--------------------------------------------------------------------------|
 D|--------------------------------------------------------------------------|
 A|--------------------------------------------------------------------------|
 E|--15---17-18----20---18--17--15------15-----17-13----18--20-22-22---------|
 E|------------------------------------------------|
 B|------------------------------------------------|
 G|--15-15-15--14-14-14----------------------------| 4x
 D|---------------------15-15-15--12-12-12---------|
 A|------------------------------------------------|
 E|------------------------------------------------| no wah
 E|----------------------------------------------------------|
 B|----------------------------------------------------------|
 G|----------------------------------------------------------|
 D|----------------------------------------------------------| wah
 A|----------------------------------------------------------|
 E|--3--5--6--8--10--11--13--15--17--18--17--18--17----------|

Bridge:
[Eb]And on i[C] read
[D]Till the day was [G]gone
[Eb]And i sat in r[C]egret
[D]For all the things [G]i've done
[Eb]For all that i've b[Bb]lessed
[D]And all that i've [Eb]wronged
[Eb]In dreams until my [C]death
D D pm.
I will wander on
Chorus:
[G]In your[Bb] house
[F]I long to [G]be
[G]Room by[Bb] room
[F]Patientl[G]y
[Eb/Bb]I'll wait for you th[G]ere
[F]Like a s[G]tone
[Eb/Bb]I'll wait for you th[G]ere
[D/A]Alone,..[D].
Comments and ratings welcome. Thanks.

Important: The song above is NOT stored on the Chordie server. The original song is hosted at www.guitaretab.com. Chordie works as a search engine and provides on-the-fly formatting. Chordie does not index songs against artists'/composers' will. To remove this song please click here.

Text color:
Chord color:
Chord grids: 
Font size:    
Page size: 

Bb C D Eb F G
Rate #1 of 3 versions

Jango Player

Login - add to songbook

SHARE PAGE  




You need to log in to post comments