Guitar Tabs, Chords and Lyrics
Server problems seems to be fixed. Chordie has been experiencing problems with songs disappearing. These issues now seems to be fixed, but still verifying the fix. If you find anything strange, please email admin@chordie.com.


Courage  Authority Zero

I picked this song because its a kickass song and know one realizes it, also cause ther
no other tabs on this song.
im not completely sure if it is right, but whatever it worked for me.
INTRO; played with chords(can be played with power chords)
Chords used;
[C] [G] [D]  
 
 e|---0---3---2---|
 B|---1---3---3---|
 G|---0---0---2---|
 D|---2---0---0---|
 A|---3---x-------|
 E|---x---3-------|

With Ska Strumming
VERSE;again, played with chords, or power chords
[CCC] [M] [GGG] [M] [DDD] [M] [DDD]  
 
 e|-000-----X-----X-----X-----X--333----X----X----X----X----222--X-X-X-X--222-|
 B|-111-----X-----X-----X-----X--333----X----X----X----X----333--X-X-X-X--333-|
 G|-000-----X-----X-----X-----X--000----X----X----X----X----222--X-X-X-X--222-|
 D|-222-----X-----X-----X-----X--000----X----X----X----X----000--X-X-X-X--000-|
 A|-333-----X-----X-----X-----X--XXX----X----X----X----X---------X-X-X-X------|
 E|-XXX-----X-----X-----X-----X--333----X----X----X----X---------X-X-X-X------|

Your torn like a flag on a battleground Stepped on and beaten down
. . . . . . . . . . . .
 
 e|---------------------------------------------------------------------------|
 B|---------------------------------------------------------------------------|
 G|-555----5-----5------5-----5-----------------------------777--7-7-7--5/777-|
 D|-555----5-----5------5-----5--555----5----5----5----5----777--7-7-7--5/777-|
 A|-333----3-----3------3-----3--555----5----5----5----5----555--5-5-5--3/555-|
 E|------------------------------333----3----3----3----3----------------------|

Lyrics
[C]So you say you're on your ow[G]n
And nothing's going righ[DD]t
[C]Fist to fist and heart to hear[G]t
You get back up and figh[D]t
[GD]..And now...
[C]Your torn like a flag on a [G]battleground
Stepped on and [D]beaten down[GD]
[C]But somehow, yeah somehow
You still [G]manage, yeah you manage to surviv[D]e
You manage [G]to [D]survive.
(Chorus:)
[C]It's your cour[G]age
[D]Take 'em on, take 'em out
[GD]Take a stand, take a bow
[C]It's your cour[G]age
[D]Take 'em on, take 'em out
[GD]Take a stand, take a bow
So...
[C]So now you're thinking it's the en[G]d
You're stuck in your self doub[D]t[GD]
[C]And if a picture says 1000 word[G]s
Take 'em till your words run [D]out[GD]
(this part is palm Muted with power chords)
C...................................
Well it's a new chapter in your life
...............G......................
In your broken soul, your broken bones
................D...................
Your broken heart, your broken bonds
...GD...............................
But you still fight to make it right
...............C......................
In your broken soul, your broken bones
................G...................
Your broken heart, your broken bonds
..............D.....................
But you still fight to make it right
..........GD.....
to make it right!
(Chorus:)
(this part is also palm muted with power chords)
C..........................G...
It's last call, last chance
.................................D
Line 'em up and let's make it last
.........................GD
Why wait when the days go fast
...............................
Make the call don't let it pass
(x4)
(Chorus:)
Key;
. = Palm Mute
m = Mute

Important: The song above is NOT stored on the Chordie server. The original song is hosted at www.guitaretab.com. Chordie works as a search engine and provides on-the-fly formatting. Chordie does not index songs against artists'/composers' will. To remove this song please click here.

Text color:
Chord color:
Chord grids: 
Font size:    
Page size: 

C D G
Rate #2 of 3 versions

Jango Player

Login - add to songbook

SHARE PAGE  



You need to log in to post comments