Guitar Tabs, Chords and Lyrics
Server problems seems to be fixed. Chordie has been experiencing problems with songs disappearing. These issues now seems to be fixed, but still verifying the fix. If you find anything strange, please email admin@chordie.com.


All I'm Gonna Take  Autograph

All I'm Gonna Take - Autograph
Tuning - Standard
This is one great song that was featured in GTA Vice City Stories and definitely deserves a tab!
In this tab, several sections of the song, the verse and solo are created from scratch according
to my interpretation and skill level. This tab is my interpretation of the song and I hope it will
bring forth more versions of the tab. This is my first attempt at creating a tab
for a song and will hope that you guys can enjoy this great song!
Two main chords to take note of... I to refer them as B and G
 
 E|----| E|---|

B|-12-| B|-8-|
G|-11-| G|-7-|
D|-9--| D|-5-|
 
 A|----| A|---|
 E|----| E|---|

[B] [G]  
Legend to symbols used (reference: Sunbane's "Looks That Kill (ver 3)" tab)
b - bend up
r - release bend
~ - vibrato
() - note to bend to
X under tabs - Muted string
X within tabs - Palm Mute
h - hammer on
p - pull off
\ - slide down
/ - slide up
INTRO
Guitar 2 plays B and G at intervals
Guitar 1
 
 E|-----------------------|--------------------------------------|
 B|-----------12----------|---------12----------------12---------|
 G|--11---9------11-9h11--|----11--------9---11---9--------9h11--|
 D|-----9---9-------------|--9----9----9---9----9---9----9-------|
 A|-----------------------|--------------------------------------|
 E|-----------------------|--------------------------------------|

Palm mute all except for 9h11
[B] [G]  
 
 E|---------------------|---------------------|---------------------|
 B|---------12----------|---------12----------|---------12----------|
 G|----11------11-9h11--|----9-------11-9h11--|----11------11-9h11--|
 D|--9----9-------------|--9---9--------------|--9----9-------------|
 A|---------------------|---------------------|---------------------|
 E|---------------------|---------------------|---------------------|

Palm mute all except for 9h11
[B]  
 
 E|---------------------|---------------------|---------------------|
 B|---------12----------|---------12----------|---------12----------|
 G|----9-------11-9h11--|----11------11-9h11--|----9-------11-9h11--|
 D|--9---9--------------|--9----9-------------|--9---9--------------|
 A|---------------------|---------------------|---------------------|
 E|---------------------|---------------------|---------------------|

Palm mute all except for 9h11
[G]  
 
 E|---------------------|---------------------|--------|
 B|---------12----------|---------12----------|--------|
 G|----11------11-9h11--|----9-------11-9h11--|----11--|
 D|--9----9-------------|--9---9--------------|--9-----|
 A|---------------------|---------------------|--------|
 E|---------------------|---------------------|--------|

Palm mute all except for 9h11
INTRO - MAIN RIFF
 
 E|----------------------|---------------------|----------------------|
 B|--------7-------------|-------7-------------|--------7-------------|
 G|--7-6-4---7-4h6-------|---------7-4-6-------|--7-6-4---7-4h6-------|
 D|----------------7-4-4-|-4-7-5---------7-4-2-|----------------7-4-4-|
 A|----------------------|---------------------|----------------------|
 E|----------------------|---------------------|----------------------|
 E|-----------------------|
 B|---------8-----7-------|
 G|-------7---7-4---7-6\9-|
 D|--7-11-----------------|
 A|-----------------------|
 E|-----------------------|

VERSE 1
For better effect gently mute the power chords after hitting.
Did you ever wonder If you were gonna break When you finally hear..
 
 E|-----------------------|------------------------|----------------------|
 B|-----------------------|------------------------|----------------------|
 G|-----4-2-4------4-2-4--|------------------------|-----4-2-4------4-2-4-|
 D|-----4-2-4------4-2-4--|-----5-4-5------5-4-5---|-----4-2-4------4-2-4-|
 A|-2-2-2-0-2--2-2-2-0-2--|-----5-4-5------5-4-5---|-2-2-2-0-2--2-2-2-0-2-|
 E|-----------------------|-3-3-3-2-3--3-3-3-2-3---|----------------------|

X X X X X X X X X X X X
VERSE 2
You've had all you're.. I know when i give in There ain't nothing...
 
 E|-----------------------|------------------------|------------------------|
 B|-----------------------|------------------------|------------------------|
 G|-----------------------|-----4---2h4-----4---2h4|------------------------|
 D|-----5-4-5-----5-------|-------4-----------4----|-----5---4-5-----5---4-5|
 A|-----5-4-5-----5-------|-2-2---------2-2--------|-------5-4-5-------5-4-5|
 E|-3-3-3-2-3-3-3-3-3-2-0-|------------------------|-3-3-----2-3-3-3-----2-3|

X X X X X X X X X X X X X X X X X X X X
Something clicks inside me And its graduation day~
 
 E|-------------------------|-----------------------------|
 B|-------------------------|-----------------------------|
 G|-----4---2h4-----4---2h4-|-----------------------------|
 D|-------4-----------4-----|-----5---4-5-----5-----------|
 A|-2-2---------2-2---------|-------5-4-5--------5--------|
 E|-------------------------|-3-3-----2-3--3-3-----3-2-0--|

X X X X X X X X X X X X X X X X
PRE-CHORUS
Everybody learns... Everybody learns...
 
 E|-----------------------------|------------------------------|
 B|-----------------------------|------------------------------|
 G|-----------------------------|-4-4-X-4-4-4-4-4-4-4-4-4-4-4--|
 D|-7-7-X-7-7-7-7-7-7-7-7-7-7-7-|-4-4-X-4-4-4-4-4-4-4-4-4-4-4--|
 A|-7-7-X-7-7-7-7-7-7-7-7-7-7-7-|-2-2-X-2-2-2-2-2-2-2-2-2-2-2--|
 E|-5-5-X-5-5-5-5-5-5-5-5-5-5-5-|------------------------------|

X X X X X X X X X X X X
The point of no return~
 
 E|-----------------------------|--------------------|
 B|-----------------------------|--------------------|
 G|-----------------------------|--------------------|
 D|-5-5-X-5-5-5-5-5-5-5-5-5-5-5-|-22222222-44444444--|
 A|-5-5-X-5-5-5-5-5-5-5-5-5-5-5-|-22222222-44444444--|
 E|-3-3-X-3-3-3-3-3-3-3-3-3-3-3-|-00000000-22222222--|

X X X X X X
CHORUS
My circuit .... My sanity's at.. I know I've taken
 
 E|------------------------------------------------------------------|
 B|------------------------------------------------------------------|
 G|-7-6-4-4 X 4 4 4 4 4 4 4 2-4-4-4-4-4-4-4-4-2----------------------|
 D|-7-6-4-4-X-4-4-4-4-4-4-4-2-4-4-4-4-4-4-4-4-2-5-5-X-5-5-7-7-X-7-7--|
 A|-5-4-2-2-X-2-2-2-2-2-2-2-0-2-2-2-2-2-2-2-2-0-5-5-X-5-5-7-7-X-7-7--|
 E|---------------------------------------------3-3-X-3-3-5-5-X-5-5--|

X X X X X X X X X X
all I'm gonna take~
 
 E|------------------------------|
 B|------------------------------|
 G|-4-4-X-4-4-4-4-4-4-4-4-4-4-4--|
 D|-4-4-X-4-4-4-4-4-4-4-4-4-4-4--|
 A|-2-2-X-2-2-2-2-2-2-2-2-2-2-2--|
 E|------------------------------|

X X X X X
Frustrated .... Feel like I'm.. I know I've taken
 
 E|------------------------------------------------------------------|
 B|------------------------------------------------------------------|
 G|-7-6-4-4 X 4 4 4 4 4 4 4 2-4-4-4-4-4-4-4-4-2----------------------|
 D|-7-6-4-4-X-4-4-4-4-4-4-4-2-4-4-4-4-4-4-4-4-2-5-5-X-5-5-7-7-X-7-7--|
 A|-5-4-2-2-X-2-2-2-2-2-2-2-0-2-2-2-2-2-2-2-2-0-5-5-X-5-5-7-7-X-7-7--|
 E|---------------------------------------------3-3-X-3-3-5-5-X-5-5--|

X X X X X X X X X X
all I'm gonna take~
 
 E|------------------------------|
 B|------------------------------|
 G|-4-4-X-4-4-4-4-4-4-4-4-4-4-4--|
 D|-4-4-X-4-4-4-4-4-4-4-4-4-4-4--|
 A|-2-2-X-2-2-2-2-2-2-2-2-2-2-2--|
 E|------------------------------|

X X X X X
The next section is a repeat as follows:
 
 ---------------------------------------

VERSE 1
Big boss man
With his collar and his tie
Thinks he's got the upper hand
When he turns us loose to die
 
 ---------------------------------------

VERSE 2
You can make a man so desperate
When there ain't no money left
But a pistol's always welcome
Like American Express
 
 ---------------------------------------

PRE-CHORUS
Everybody learns.. everybody learns...
The point of no return
 
 ---------------------------------------

CHORUS
My circuit breaker's breaking
My sanity's at stake
I know I've taken all I'm gonna take~
Frustrated, body shaking
Feel like I'm gonna break
I know I've taken all I'm gonna take~
 
 ---------------------------------------

At the end of the second chorus prior to interlude briefly slide
up the 2 (B note on second string)to transition smoothly into interlude.
INTERLUDE
 
 E|------------------------------------------------------------------|
 B|-------------------------------10---------------------------------|
 G|-----------------------------9----13b(14)r13b(14)r13b(14)r13-11~--|
 D|--------7~--------9~-11~-12~--------------------------------------|
 A|-\3-5-7----\5-7-9-------------------------------------------------|
 E|------------------------------------------------------------------|

After the interlude play the intro again.
INTRO
SOLO
The solo below includes a small section from the intro.
This solo does not follow according to that of the
original song. Viewers of the tab are free to improvise.
From INTRO
 
 E|-----------------------------------------------------------|
 B|---7-------------------------------------------------------|
 G|-----7-6\9-10p9-11p10-12p11-13p12-14p15-15p16-17p16-18p17--|
 D|-----------------------------------------------------------|
 A|-----------------------------------------------------------|
 E|-----------------------------------------------------------|
 E|---------------------------7h9-7h9-10-9-7-17-------15-------|
 B|----------------7h8-7h8-10-------------------15-12----15-12-|
 G|------6h7-6h7-9---------------------------------------------|
 D|--7h9-------------------------------------------------------|
 A|------------------------------------------------------------|
 E|------------------------------------------------------------|
 E|-14--------------------------|
 B|----15-14\17-15p14-15p14-----|
 G|-------------------------16~-|
 D|-----------------------------|
 A|-----------------------------|
 E|-----------------------------|

->|Guitar 2 plays END CHORUS
 
 E|-------------7----10p9h10p9h10p9p7h9\10\12-12~/--------------------------|
 B|---------8p7---10------------------------------------10----10\12---------|
 G|-----7p6-----------------------------------------\11----11---------------|
 D|-9p7---------------------------------------------------------------------|
 A|-------------------------------------------------------------------------|
 E|-------------------------------------------------------------------------|

As indicated above END CHORUS begins prior to end of SOLO
END CHORUS
Note that the END CHORUS is similar to the CHORUS other than the addition of a few repeats
of "I know I've taken all I'm gonna take".
My circuit .... My sanity's at.. I know I've taken
 
 E|------------------------------------------------------------------|
 B|------------------------------------------------------------------|
 G|-7-6-4-4 X 4 4 4 4 4 4 4 2-4-4-4-4-4-4-4-4-2----------------------|
 D|-7-6-4-4-X-4-4-4-4-4-4-4-2-4-4-4-4-4-4-4-4-2-5-5-X-5-5-7-7-X-7-7--|
 A|-5-4-2-2-X-2-2-2-2-2-2-2-0-2-2-2-2-2-2-2-2-0-5-5-X-5-5-7-7-X-7-7--|
 E|---------------------------------------------3-3-X-3-3-5-5-X-5-5--|

X X X X X X X X X X
all I'm gonna take~
 
 E|------------------------------|
 B|------------------------------|
 G|-4-4-X-4-4-4-4-4-4-4-4-4-4-4--|
 D|-4-4-X-4-4-4-4-4-4-4-4-4-4-4--|
 A|-2-2-X-2-2-2-2-2-2-2-2-2-2-2--|
 E|------------------------------|

X X X X X
Frustrated .... Feel like I'm.. I know I've taken
 
 E|------------------------------------------------------------------|
 B|------------------------------------------------------------------|
 G|-7-6-4-4 X 4 4 4 4 4 4 4 2-4-4-4-4-4-4-4-4-2----------------------|
 D|-7-6-4-4-X-4-4-4-4-4-4-4-2-4-4-4-4-4-4-4-4-2-5-5-X-5-5-7-7-X-7-7--|
 A|-5-4-2-2-X-2-2-2-2-2-2-2-0-2-2-2-2-2-2-2-2-0-5-5-X-5-5-7-7-X-7-7--|
 E|---------------------------------------------3-3-X-3-3-5-5-X-5-5--|

X X X X X X X X X X
all I'm gonna take~
 
 E|------------------------------|
 B|------------------------------|
 G|-4-4-X-4-4-4-4-4-4-4-4-4-4-4--|
 D|-4-4-X-4-4-4-4-4-4-4-4-4-4-4--|
 A|-2-2-X-2-2-2-2-2-2-2-2-2-2-2--|
 E|------------------------------|

X X X X X
I know I've taken all I'm gonna take~
 
 E|-------------------------------------------|
 B|-------------------------------------------|
 G|-----------------------------4-4-4-4-4-4-4-| X 3
 D|-5-5-5-5-5-5-5-7-7-7-7-7-7-7-4-4-4-4-4-4-4-|
 A|-5-5-5-5-5-5-5-7-7-7-7-7-7-7-2-2-2-2-2-2-2-|
 E|-3-3-3-3-3-3-3-5-5-5-5-5-5-5---------------|

X X X X X X X X X X X X
 
 E|----------------------------------|
 B|----------------------------------|
 G|-----------------------4----------|
 D|-5----------7----------4----------|
 A|-5----------7----------2----------|
 E|-3----------5---------------------| 

let ring~ let ring~ let ring~
ENJOY!
7/28/2012
WY

Important: The song above is NOT stored on the Chordie server. The original song is hosted at www.guitaretab.com. Chordie works as a search engine and provides on-the-fly formatting. Chordie does not index songs against artists'/composers' will. To remove this song please click here.

Text color:
Chord color:
Chord grids: 
Font size:    
Page size: 

B G
Rate #1 of 1 versions

Login - add to songbook

SHARE PAGE  




You need to log in to post comments