Guitar Tabs, Chords and Lyrics
Server problems seems to be fixed. Chordie has been experiencing problems with songs disappearing. These issues now seems to be fixed, but still verifying the fix. If you find anything strange, please email admin@chordie.com.


Heretic   Avenged Sevenfold

 
 |-/8b[10]-8b[10]-8b[10]----------12b[13]--12b[13]-12b[13]-------17b[18]--17b[18]17b[18]-17b[18]--|
 |----------------------11-10-----------------------------15-13-----------------------------------|
 |---------------------------12-10-----------------------------14---------------------------------|
 |------------------------------------------------------------------------------------------------|
 |------------------------------------------------------------------------------------------------|
 |------------------------------------------------------------------------------------------------|
 |--15p13p12-12/15-12-------12h15p12----------------|
 |-------------------14--14----------14--14------14-|
 |---------------------12--------------12--12--12---|
 |-------------------------------------------11-----|
 |--------------------------------------------------|
 |--------------------------------------------------|
 |-------------------------------------| |------------------------------|
 |--------------------------13---------| |------------------------------|
 |--12b[14]--12[14]~~--12-14--14-12-14-| x2 |-14b[15]--14b[15]--/12-10-9~--|
 |-------------------------------------| |------------------------------|
 |-------------------------------------| |------------------------------|
 |-------------------------------------| |------------------------------|

 


 


 [++++++++++++++++++++++++++++++]  


 SOLO B


 


 Guitar 1:


 

 
 |-------------------------12-13--------------12-13-12------------------|
 |-----------------------10-----15----------15--------10----------------|
 |--9-10-9--9--9-10--9-10---------14------14------------10----------14--|
 |--------11-11----11---------------15--15------------------12-14-15----|
 |------------------------------------17------------------12------------|
 |----------------------------------------------------------------------|
 |---17-----------------------17-17-----------------------17--18~-17--15-17-18--|
 |-----18----------------17-18-----18----------------17-18----------------------|
 |-------19------------19------------19------------19---------------------------|
 |---------19--------19----------------19--------19-----------------------------|
 |-----------20-17-20--------------------20-17-20-------------------------------|
 |------------------------------------------------------------------------------|
 |--17--15-----18-------17------------------------------------------------|
 |----17--18-17--18-17----18-17--17--------14-----------------------------|
 |--------------------15-------15--18-15-13--15-14------------------------|
 |------------------------------------------------14-11--14-11--11-14-11--|
 |-----------------------------------------------------12-----12----------|
 |------------------------------------------------------------------------|

 


 


 [++++++++++++++++++++++++++++++]  


 SOLO C


 


 Guitar 1:


 

 
 |------------------|------------------------|-------------------------------------------------|
 |------------------|------------------------|-------------------------15-14--15-14-15b[17]~~--|
 |--7~-/14\7/4\--7~-|--9/10--/17\10/17\--10~-|--15b[17]~~--15-14-15--15------------------------|
 |------------------|------------------------|-------------------------------------------------|
 |------------------|------------------------|-------------------------------------------------|
 |------------------|------------------------|-------------------------------------------------|

 


 


 SWEEPING PART


 


 Guitar 1:


 

 
 |----------17--13-----17-----------------------------13--13-------------------|
 |--------18--15--15-18--18-15----15----------11-14-15--15--15-11--------------|
 |------19--------------------14----14------12-------------------12----12------|
 |----19------------------------15----15--12-----------------------12----12----|
 |--20----------------------------------13---------------------------13----13--|
 |-----------------------------------------------------------------------------|
 |----------15--------17-15---------------------15--20--20-------------------|
 |--------15--15--15-------15-----------------17--17--20--20-17------17------|
 |------16------16--16-------16--16---------17-----------------18--18--18----|
 |----17-----------------------17--17-----17---------------------19------19--|
 |--17-------------------------------17-19-----------------------------------|
 |---------------------------------------------------------------------------|
 |----------17--13-----17-----------------------------13--13-------------------|
 |--------18--15--15-18--18-15----15----------11-14-15--15--15-11--------------|
 |------19--------------------14----14------12-------------------12----12------|
 |----19------------------------15----15--12-----------------------12----12----|
 |--20----------------------------------13---------------------------13----13--|
 |-----------------------------------------------------------------------------|
 |-----------15--------19---------------------------------------------------|---------|
 |------12-15--15--15----20-------------------------------------------------|---------|
 |----12---------16--16----19-16--16--18-15------15-------------------------|---------|
 |--12--------------------------17--17-----17--17--17--17-14-11--11-10------|--11~~---|
 |-------------------------------------------19------19--------12-----14-13-|---------|
 |--------------------------------------------------------------------------|---------|

 


 


 Guitar 2:


 

 
 |-----------------17--17--------------------------------18--18-------------------|
 |---------15-17-18--18--18-15-------------------15-17-18--18--18-15--------------|
 |-------14-------------------14----14---------15-------------------15----15------|
 |-----15-----------------------15----15-----15-----------------------15----15----|
 |--17----------------------------17----17-17---------------------------17----15--|
 |--------------------------------------------------------------------------------|
 |----------------19--19------------------------12--15--17----------------|
 |--------12-15-20--20--20--------------------13--13--17--17--------------|
 |------12----------------19-16-------------12--------------18------18----|
 |----12-----------------------17--17-----14------------------19--19--19--|
 |--14---------------------------17--17-15----------------------19--------|
 |------------------------------------------------------------------------|
 |-----------------17--17--------------------------------18--18-------------------|
 |---------15-17-18--18--18-15-------------------15-17-18--18--18-15--------------|
 |-------14-------------------14----14---------15-------------------15----15------|
 |-----15-----------------------15----15-----15-----------------------15----15----|
 |--17----------------------------17----17-17---------------------------17----15--|
 |--------------------------------------------------------------------------------|
 |----------------19--19-------------------------------------------------------|--------|
 |--------13-15-20--20--20-15----------17--------------------------------------|--------|
 |------12-------------------16----------18--------18-----15-------------------|--------|
 |----12-----------------------17--17------20-17-20--20-17--17-14-11-----------|--7~~---|
 |--14---------------------------17--17-----------------------------12-11-10-9-|--------|
 |-----------------------------------------------------------------------------|--------|


Important: The song above is NOT stored on the Chordie server. The original song is hosted at www.guitaretab.com. Chordie works as a search engine and provides on-the-fly formatting. Chordie does not index songs against artists'/composers' will. To remove this song please click here.

This song is displayed as text-only. Transposing and tuning is only available for chordpro-songs.
Rate #2 of 5 versions

Jango Player

Login - add to songbook

SHARE PAGE  




You need to log in to post comments