Guitar Tabs, Chords and Lyrics
Server problems seems to be fixed. Chordie has been experiencing problems with songs disappearing. These issues now seems to be fixed, but still verifying the fix. If you find anything strange, please email admin@chordie.com.


Buried Alive   Avenged Sevenfold

 
 e|-----------------------------------------------------|
 B|------------15-17\13~--10-15\10~-------------13-15~--|
 G|--/17-17-17----------------------12-16-16-16---------| x2
 D|-----------------------------------------------------|
 A|-----------------------------------------------------|
 D|-----------------------------------------------------|
 e|-----------------------------------------------------|
 B|--/10-10-10-12-13\8~--5/10-----------------10-12~----|
 G|---------------------------10~-9--12-12-12-----------| x2
 D|-----------------------------------------------------|
 A|-----------------------------------------------------|
 D|-----------------------------------------------------|

 


 


 [+++++++++++++++++++++++++]  


 SOLO A


 


 Guitar 1:


 


 

 
 e|-17h----17h----17h----17h----17h-------15h----15h----15h----15h----15h--------|
 B|----17-----17-----17-----17-----17--------17-----17-----17-----17-----17p13---|
 G|------17-----17-----17-----17-----17p14-----17-----17-----17-----17--------14-|
 D|------------------------------------------------------------------------------|
 A|------------------------------------------------------------------------------|
 D|------------------------------------------------------------------------------|
 e|-17h----17h----17h----17h----17h-------15h----15h----15h----15h----15h--------|
 B|----18-----18-----18-----18-----18p15-----15-----15-----15-----15-----15p12---|
 G|------19-----19-----19-----19--------14-----16-----16-----16-----16--------12-|
 D|------------------------------------------------------------------------------|
 A|------------------------------------------------------------------------------|
 D|------------------------------------------------------------------------------|
 e|-17h----17h----17h----17h----17h-------15h----15h----15h----15h----15h--------|
 B|----17-----17-----17-----17-----17--------17-----17-----17-----17-----17p13---|
 G|------17-----17-----17-----17-----17p14-----17-----17-----17-----17--------14-|
 D|------------------------------------------------------------------------------|
 A|------------------------------------------------------------------------------|
 D|------------------------------------------------------------------------------|
 e|-17h----17h----17h----17h----17h-------|---------------------------20-------------19b[20]-|
 B|----18-----18-----18-----18-----18-----|-21-22-21-20-21-22-21-20-24--24-22------17--------|
 G|------19-----19-----19-----19-----19---|--------------------------------------17----------|
 D|------------------------------------19-|------------------------------------19------------|
 A|---------------------------------------|----------------------------------19--------------|
 D|---------------------------------------|--------------------------------------------------|

 


 


 Guitar 2:


 


 

 
 e|-12h----12h----12h----12h----12h------12h----12h----12h----12h----12h-------|
 B|----13-----13-----13-----13-----13p10----13-----13-----13-----13-----13-----|
 G|------14-----14-----14-----14--------9-----12-----12-----12-----12-----12---|
 D|-------------------------------------------------------------------------14-|
 A|----------------------------------------------------------------------------|
 D|----------------------------------------------------------------------------|
 e|-13h----13h----13h----13h----13h-------10h----10h----10h----10h----10h-------|
 B|----15-----15-----15-----15-----15--------12-----12-----12-----12-----12-----|
 G|------14-----14-----14-----14-----14p10-----12-----12-----12-----12-----12---|
 D|--------------------------------------------------------------------------12-|
 A|-----------------------------------------------------------------------------|
 D|-----------------------------------------------------------------------------|
 e|-12h----12h----12h----12h----12h------12h----12h----12h----12h----12h-------|
 B|----13-----13-----13-----13-----13p10----13-----13-----13-----13-----13-----|
 G|------14-----14-----14-----14--------9-----12-----12-----12-----12-----12---|
 D|-------------------------------------------------------------------------14-|
 A|----------------------------------------------------------------------------|
 D|----------------------------------------------------------------------------|
 e|-13h----13h----13h----13----13--------|-13-12-11-12-13-12-11-12-13-12-11-----12-16-/16b[17]-|
 B|----15-----15-----15----15----15------|---------------------------------10-13---------------|
 G|------14-----14-----14----14----14p10-|-----------------------------------------------------|
 D|--------------------------------------|-----------------------------------------------------|
 A|--------------------------------------|-----------------------------------------------------|
 D|--------------------------------------|-----------------------------------------------------|

 


 


 [+++++++++++++++++++++++++]  


 PART B


 


 Guitar 1:


 


 

 
 e|-----------------------------------------12===--/17===--\16===--|
 B|--/10===--/13===--/17===--/22===--\13===------------------------|
 G|----------------------------------------------------------------|
 D|----------------------------------------------------------------|
 A|----------------------------------------------------------------|
 D|----------------------------------------------------------------|
 e|---------------------------------\19===--/20===--\19===--11===--|
 B|--/10===--/13===--/17===--/12===--------------------------------|
 G|----------------------------------------------------------------|
 D|----------------------------------------------------------------|
 A|----------------------------------------------------------------|
 D|----------------------------------------------------------------|
 e|-17-12---------19--17------------19--17------------17--16------------16----|
 B|------13-----17--17--17--------17--17--17-13-----17--17--17--------17--17--|
 G|--------14h17----------17p14h17-------------14p17----------17p13h17--------|
 D|---------------------------------------------------------------------------|
 A|---------------------------------------------------------------------------|
 D|---------------------------------------------------------------------------|
 e|--------------------------------------------------------------------------------------|
 B|------------------------22===---------------------------------------------------------|
 G|-/14===--/17===--/21===-------\21===--/22===--\21===--/22===--\16===--/17===--\13===--|
 D|--------------------------------------------------------------------------------------|
 A|--------------------------------------------------------------------------------------|
 D|--------------------------------------------------------------------------------------|
 e|----------------------------------------------------------------------|
 B|---------------------13-15-16b[17]~~----------------16-17-/20b[22]~~--|
 G|-/14~~----------12-14--------------------------17-19------------------|
 D|-----------13-14--------------------------17-19-----------------------|
 A|------12-15--------------------------18-19----------------------------|
 D|----------------------------------------------------------------------|
 e|------10-11-12-14-15-17-/19b[20]-17---------------------------------------------|
 B|-10-13------------------------------20b[22]-------------------------------------|
 G|--------------------------------------------21-20-19-18-17-17h19p17-17-18-19-20-|
 D|--------------------------------------------------------------------------------|
 A|--------------------------------------------------------------------------------|
 D|--------------------------------------------------------------------------------|
 e|-----------------------------------------------------12-/16b[17]~~--(16)\--|
 B|-17-13-----------------------17-18-----------------12----------------------|
 G|------14----------------14-17-----17-14----------13------------------------|
 D|--------14---------10-14---------------15------14--------------------------|
 A|----------15-12--12----------------------15--15----------------------------|
 D|---------------14--------------------------17------------------------------|


Important: The song above is NOT stored on the Chordie server. The original song is hosted at www.guitaretab.com. Chordie works as a search engine and provides on-the-fly formatting. Chordie does not index songs against artists'/composers' will. To remove this song please click here.

This song is displayed as text-only. Transposing and tuning is only available for chordpro-songs.
Rate #1 of 8 versions

Jango Player

Login - add to songbook

SHARE PAGE  



You need to log in to post comments