Guitar Tabs, Chords and Lyrics
Major upgrade!! After one year development the new version of Chordie is now online! Please give feedback.


Bat Country   Avenged Sevenfold

 
 -------------------------------------------------------------------------------

 


 "Bat Country" solo - Avenged Sevenfold


 

 
 -------------------------------------------------------------------------------

 


 Tabbed by: [travis]


 email: syn_gates_punk14@msn.com


 


 Tuning: All guitars are Drop-D:


 D A D G B E (low to high)


 


 This is the official tab for Bat Country. This is the whole solo with all guitars


 it. Good luck on playing it.


 This is my second tab on this site. Make sure to check out my "Seize the Day" solo tab later.


 


 Legend:


 


 b= bend


 [ ]= what note that bend should sound like


 ...= palm muted


 /\= slides


 h= hammer-on


 p= pull-off


 ah= pinch harmonic


 w= wammy bar


 ~= ring/ vibrato


 x= muted string


 


 *The +++++++ is just to divide up the sections.


 


 Guitar 2: Guitar 1:


 

 
 e|-10------------------------------------|---------------------------------------|
 B|-13b[15]-9-------8-------(8)-\-3-------|---------------------13-15b[18]-(15)~~~|
 G|---------11b[13]-10b[12]-(10)\-5b[7]---|------------12-13-14-------------------|
 D|---------------------------------------|-10/12-12-15---------------------------|
 A|---------------------------------------|---------------------------------------|
 D|---------------------------------------|---------------------------------------|

 


 


 [++++++++++++++++++++++++++++++++++++++++++++++++++++++++++++++++++++++++]  


 Guitar 2: Guitar 1:


 

 
 e|-10------------------------------------------|------------------------------|
 B|-13b[15]-9-------8-------(8)-~~(8)-\-3-------|--(15)~~~-(15)----------------|
 G|---------11b[13]-10b[12]-(10)~~(10)\-5b[7]---|------------------------------|
 D|---------------------------------------------|------------------------------|
 A|---------------------------------------------|------------------------------|
 D|---------------------------------------------|----------------0-(0)w--------|

 


 *Push the wammy bar down for a slow dive*


 


 [++++++++++++++++++++++++++++++++++++++++++++++++++++++++++++++++++++++++++]  


 Guitar 1:


 

 
 e|------------------------------------------------------|
 B|-------------------5b[6]~-----------------------8b[9]-|
 G|-16\6--5b[7]-5b[8]--------5b[7]-(5)b[8]-(5)b[8]-------|
 D|------------------------------------------------------|
 A|------------------------------------------------------|
 D|------------------------------------------------------|

 


 Bend the 5th fret up a full step bend and bring it back down, and bend it up again, only


 this time you bend it up a 1 1/2 step bend, and you don't pick it. Pick the 5th fret on


 the B string, but bend it a 1/2 step. Then do the same thing on the G string, but you're


 not picking the 5 in the ( )s. Listen to the song to hear this part.


 


 Guitar 2:


 

 
 e|------------------------------------------|
 B|------------------------------------------|
 G|------------------------------------------|
 D|------------------------------------------|
 A|-55555555---------------------------------|
 D|---------66666666-000000000-3-5-6--6-6-6--|

 


 .........


 Play this 3 more times over solo ^^^^.


 


 [+++++++++++++++++++++++++++++++++++++++++++++++++++++++++++++++++++++++++++++]  


 Guitar 1:


 

 
 e|--------------------------------------------------------------------------------|
 B|----------------------11b[14]~--13b[15]-(13)b[15]-(13)-10--------15b[18]~~~(15)-|
 G|-5b[7]-(5)b[8]-(5)b[8]-----------------------------------13-10-13---------------|
 D|--------------------------------------------------------------------------------|
 A|--------------------------------------------------------------------------------|
 D|--------------------------------------------------------------------------------|

 


 


 [+++++++++++++++++++++++++++++++++++++++++++++++++++++++++++]  


 Guitar 1:


 

 
 e|-------------------17b[19]-17-16-15--15------------------------------------|
 B|-------18b[21]~~-x-----------------18--18b[20]-(18)b[21]-(18)b[21]-(18)\---|
 G|-13--13----------x---------------------------------------------------------|
 D|---15----------------------------------------------------------------------|
 A|---------------------------------------------------------------------------|
 D|---------------------------------------------------------------------------|

 


 On this part, you're just bending the 18th fret on the B string up and down, but


 it's a 1 1/2 step bend. If you can't get that bend, then you can try bending it only


 half step.


 


 [+++++++++++++++++++++++++++++++++++++++++++++++++++++++++++++]  


 Guitar 1:


 

 
 e|-/-18-17-13----------------------------------------------------14-14[16]~-(14)\-|
 B|----------------------13-13-13-13-15b[18]-(15)b[17]~-(15)\---15-----------------|
 G|-----------13-13-13-13------------------------------------/13-------------------|
 D|--------------------------------------------------------------------------------|
 A|--------------------------------------------------------------------------------|
 D|--------------------------------------------------------------------------------|

 


 


 [+++++++++++++++++++++++++++++++++++++++++++++++++++++++++++++++]  


 Guitar 1:


 

 
 e|-----------13----------12-------15----------17-18-17-16-17-18-17-16-17-17-17-17-17-17\12~|
 B|-15----------10-10-10----9-9-9----14-14-14-----------------------------------------------|
 G|---10-10-10------------------------------------------------------------------------------|
 D|-----------------------------------------------------------------------------------------|
 A|-----------------------------------------------------------------------------------------|
 D|-----------------------------------------------------------------------------------------|

 


 


 Guitar 2: Play this once over that part ^^^, and the part below V V.


 

 
 e|------------------------------------------------------------------|
 B|------------------------------------------------------------------|
 G|------------------------------------------------------------------|
 D|------------------------------------------------------------------|


Important: The song above is NOT stored on the Chordie server. The original song is hosted at www.guitaretab.com. Chordie works as a search engine and provides on-the-fly formatting. Chordie does not index songs against artists'/composers' will. To remove this song please click here.

This song is displayed as text-only. Transposing and tuning is only available for chordpro-songs.
Rate #1 of 15 versions

Jango Player

Login - add to songbook

SHARE PAGE  



You need to log in to post comments