Guitar Tabs, Chords and Lyrics
Server problems seems to be fixed. Chordie has been experiencing problems with songs disappearing. These issues now seems to be fixed, but still verifying the fix. If you find anything strange, please email admin@chordie.com.


Dile al amor  Aventura

Intro:
 
 e---|------------------------------------------|
 B-4-|------------------------------------------|
 G---|-1-1-1--3-3/4-1-1/6--3-4--1-1/3--3/1------| x2
 D---|--------------------------------------6/4-|
 A---|------------------------------------------|
 E---|------------------------------------------|
 e-7-6-7-6-7-6-7-6-7-6-7-6-7-6-7-6-----7/14-|
 B---------------------------------7--------|
 G------------------------------------------| x2
 D------------------------------------------|
 A------------------------------------------|
 E------------------------------------------|

[B]cupido no te entiendo alardeas de ej[G#m]emplo
de juntar c[E]orazones un experto en conexi[F#]on
te fallaron la[B]s flechas y de tantas viol[G#m]etas
que por ti he re[E]galado en mi jardin no hay ni una [F#]flor
pues dile al [E]amor que no toque mi puer[F#]ta
que yo no estoy en c[B]asa qu[F#]e no vuel[G#m]va maņana
a mi corazon [E]ya le ha fallado en ocaci[F#]ones
me fui de vacacio[B]nes [F#]lejos [G#m]de los amores
dile al amor q[E]ue no es grato mi vi[F#]da
dale mi despe[B]dida cuent[F#]ale las raz[G#m]ones
 
 e-7-6-7-6-7-6-7-6-7-6-7-6-7-6-7-6-----7/14-|
 B---------------------------------7--------|
 G------------------------------------------| x2
 D------------------------------------------|
 A------------------------------------------|
 E------------------------------------------|

[B]cupido no entiendo si la suerte me o[G#m]dia
y me ha dado la [E]herencia en la
fortuna del des[F#]amor
y te p[B]ido disculpas pero no aci[G#m]ertas una
mis febreros so[E]n largos aunque no sea tu [F#]intencion
pues dile al [E]amor que no toque mi puer[F#]ta
que yo no estoy en c[B]asa que[F#] no vuelv[G#m]a maņana
a mi corazon y[E]a le ha fallado en ocasion[F#]es
me fui de vacacio[B]nes [F#]lejos [G#m]de los amores
dile al amor q[E]ue no es grato mi vi[F#]da
dale mis despedi[B]da cuental[F#]e las razon[G#m]es
yes sir
 
 e---------------------------------------|
 B-----------------------------------8-7-|
 G-4h7-7-7-7-7-7-7--7h9-7-7-6-7-9-9------|
 D---------------------------------------|
 A---------------------------------------|
 E---------------------------------------|

*** trabajando en esta parte ***
[G]no quiero fechas en mi calen[A]dario
visitas en mi h[F#m]orario
si se trata de [Bm]amor
[G]no me interesa oir mas cancion[A]es
no quiero ver flo[F#m]res
si se trata de am[Bm]or
[G]pongo a dieta los sentimien[A]tos
evitando mome[F#m]ntos de desilucion[Bm]
CUPIDO
dile al amor [E]que no toque mi puerta[F#]
que yo no estoy en c[B]asa [F#]que no[G#m] vuelva maņana
a mi corazon y[E]a le ha fallado en ocacion[F#]es
me fui de vacacio[B]nes lejos d[F#]e los amo[G#m]res
dile al amor q[E]ue no es grato mi vi[F#]da
dale mi despedid[B]a cuentale[F#] las razone[G#m]s
i [E]Don't need no [B]love i[F#]n my life

Important: The song above is NOT stored on the Chordie server. The original song is hosted at www.guitaretab.com. Chordie works as a search engine and provides on-the-fly formatting. Chordie does not index songs against artists'/composers' will. To remove this song please click here.

Text color:
Chord color:
Chord grids: 
Font size:    
Page size: 

A B Bm E F# F#m G G#m
Rate #1 of 2 versions

Jango Player

Login - add to songbook

SHARE PAGE  




You need to log in to post comments