Guitar Tabs, Chords and Lyrics
Major upgrade!! After one year development the new version of Chordie is now online! Please give feedback.


Un beso  Aventura

Como esta cancion a primera vez ke la oi me iso recordar de mi chaparrita. porke con
me enamore por un beso...........
Aquí va esta canción, espero que les guste:
 
 e -----------------------|
 B ----3-3-3-3-3-3-3-6-3-5|
 G ----0------------------|
 D -----------------------|
 A 3----------------------|
 E -----------------------|
 e -----------------------|
 B -----------------------|
 G ----2-2-2-2-2-2-2-5-2-4|
 D ----0------------------|
 A -----------------------|
 E 3----------------------|
 e 15--0--13--0--12-0--10--0---15--0--13--0--12-0--10--0-|
 B ------------------------------------------------------|
 G ------------------------------------------------------|
 D 14-14--14-14?14-14--12-12---14-14--14-14?14-14--12-12-|
 A ------------------------------------------------------|
 E ------------------------------------------------------|
 e 15--0--13--0--12-0--10--0|
 B -------------------------|
 G -------------------------|
 D 14-14--14-14?14-14--12-12|
 A -------------------------|
 E -------------------------|
 e -----0-----|
 B ----1-1----|
 G ---0---0---|
 D --2-----2--|
 A -3-------3-|
 E 3---------3|

¡Hay una mujer!
 
 e --------------------------7-8--8-8-8-8|
 B ----------------------8-10-----5-5-5-5|
 G ----------------7-9-10----------------|
 D ----------7-9-10----------------------|
 A ----7-8-10----------------------------|
 E 8-10----------------------------------|

Que domina mis sentidos con sólo tocar mi piel
 
 e --10--8--7--5--3--1--3----5|
 B ---------------------------|
 G ---------------------------|
 D 12--10--9--7--5--3--5--7-7-|
 A ---------------------------|
 E ---------------------------|

¡Y Cómo a mí también!
 
 e -------------------------------|
 B -------------------------------|
 G ?0-0-0-0-0-0-0-3-0-2--|
 D -------------------------------|
 A -------------------------------|
 E 1------------------------------|

A otro hombre esto le puede suceder.
 
 e ----------------------------------------------------|
 B ---------------------------------------0-0-0-0-0-0-0|
 G ----2-2-2-2-2-2-2-5-2-4-4-4-4-4-------0-0-0-3-0-0-0-|
 D ----0--------------------------------3--------------|
 A ------------------------------------5---------------|
 E 3----------------------------------3----------------|

[C]Que sólo por un beso,
A 0-2-3-3
[Am]Se puede enamorar,
 
 e --12--10--8--7--5|
 B -----------------|
 G -----------------|
 D 13--12--10--9--7-|

Sin necesidad de hablar[Dm]se
e --12--10|
 
 B --------|
 G --------|

D 13--12--|
Sólo los labios rozars[F]e,
e --12--10|
 
 B --------|
 G --------|

D 13--12--|
[F]Cupido los flechar[G]á.
 
 e --15--13--12--10--8|
 B -------------------|
 G -------------------|
 D 16--14--13--12--10-|

[C]Y sólo por un beso,
 
 A 0-2-3-0-2-3-3-0-2-3|
 E ------------|
 B ---------0-1|
 G ------0-2---|
 D -0-2-3------|
 A 3-----------|
 E ------------|

[Am]Con ella soy feliz,
 
 e -5--3--1---------|
 B ----------5--3--1|
 G -----------------|
 D 7--5--3----------|
 A ---------7--5--3-|

Sólo por un besit[Dm]o,
e -----|
B -5--3|
G -----|
D -----|
A 7--5-|
Me llevó al infinit[F]o
e -----|
B -5--3|
G -----|
D -----|
A 7--5-|
[F]Y ni siquiera la conozco bie[G]n.
 
 e --15--13--12--10---8--7--5----10-11-12|
 B --------------------------------------|
 G --------------------------------------|
 D 16--14--13--12--10---9--7-----12-13-13|

Un beso si[Am]gnifica amistad, sexo y amor
En cualquier parte del [F]mundo no importa la religión
Por un beso de su [Dm]boca voy al cielo y hablo con [F]dios
Alcanzo las [Dm]estrellas de emoci[G]ón.[C] [C] [C]
Su boca es tan s[C]ensual
 
 e 15-15-15-15--13-13-13-13--12-12-12-12--10-10-10-10--8-8-8-8|

Me cautiva Y me ex[G]cita no me canso de besar
 
 e 15-15-15-15--13-13-13-13--12-12-12-12--10-10-10-10--8-8-8-8|

Su lengua es mi debilid[F]ad
 
 e 15-15-15-15--13-13-13--12-12-12--10-10-10--8-8|

Ella sabe los truqu[G]itos díganme si hay alguien mas
 
 e 15-15-15-15--13-13-13--12-12-12--10-10-10--8-8|

[C]Que sólo por un beso,
 
 A 1-1-1-1-1-4-1-3

[Am]Se puede enamorar,
 
 D 0-0-0-0-0-3-0-2

Sin necesidad de h[Dm]ablarse
e -----|
B -5--3|
G -----|
D -----|
A 7--5-|
Sólo los labios rozars[F]e,
e -----|
B -5--3|
G -----|
D -----|
A 7--5-|
[F]Cupido los flechar[G]á.
 
 e --15--13--12--10--8|
 B -------------------|
 G -------------------|
 D 16--14--13--12--10-|

[C]Y sólo por un beso,
 
 E 0-2-3-3-3-3-0-2-3|

[Am]Con ella soy feliz,
 
 E -----------|
 B -----------|
 G ------0-0-0|
 D -0-2-3-----|
 A 3----------|

Sólo por un besi[Dm]to,
e -----|
B -5--3|
G -----|
D -----|
A 7--5-|
Me llevó al infinit[F]o
e -----|
B -5--3|
G -----|
D -----|
A 7--5-|
[F]Y ni siquiera la conozco bie[G]n.
 
 e --15--13--12--10--8|
 B -------------------|
 G -------------------|
 D 16--14--13--12--10-|

Un beso si[Am]gnifica amistad, sexo y amor
En cualquier parte del [F]mundo no importa la religión
Por un beso de su [Dm]boca voy al cielo y hablo con [F]dios
Alcanzo las [Dm]estrellas de emoci[G]ón.
 
 e -----8-8--------------3-3--7/8-7-7|
 B 5-5------6-6--5/6-5-5-------------|
 e -----8-8--------------3-3--10/12-10|
 B 5-5------6-6--5/6-5-5--------------|

e --0-1|
B --1-1|
G --0-0|
D -2---|
A 3----|
E -----|
 
 e -7--5--3---1------------|
 B --------------5--3--1--0|
 G ------------------------|
 D 9--7--5---3-------------|
 A -------------7--5--3--2-|
 E ------------------------|
 e --8--7--5-----10---8--7---10---8--7----5--3--1------|
 B ------------------------------------------------5--3|
 G ----------------------------------------------------|
 D 10--9--7----12---10--9--12---10--9----7--5--3-------|
 A -----------------------------------------------7--5-|
 E ----------------------------------------------------|
 e ----7---5----7----5|
 B -------------------|
 G -------------------|
 D 9-9--7-7--9-9--7-7-|
 A -------------------|
 E -------------------|
 e -----p0----------------|
 B -----------------------|
 G -----------------------|
 D ------------------2-2-2|
 A 3-3-3----3-3-3---------|
 E -----------------------|
 e ----7---5----7----5----0-0-12-0-0-12-0---0-0-12-0|
 B -------------------------------------------------|
 G -------------------------------------------------|
 D 9-9--7-7--9-9--7-7-------------------------------|
 A -------------------------------------------------|
 E -------------------------------------------------|
 e 8-7--------------------------|
 B ---10-8----------------------|
 G -------10-9-7----------------|
 D -------------10-9-7----------|
 A -------------------10-8-7----|
 E -------------------------10-8|

¡Hay una muje[C]r!
 
 A 0-2-3-0-2-3-0-2-3|

Que domina mis senti[G]dos con sólo tocar mi piel.
 
 E 15-15-15-15--13-13-13-13--12-12-12-12--10-10-10-10--8-8-8-8|

Y cómo a mí tambié[C]n.
 
 A 0-2-3-0-2-3-0-2-3|

A otro hombre esto le puede sucede[G]r.
 
 E 15-15-15-15--13-13-13-13--12-12-12-12--10-10-10-10--8-8-8-8|

[C]Que sólo por un beso.
Rumba, yeyeyeye, hehehehe, uhouhouho, yeheyehe.
Un beso si[Am]gnifica amistad, sexo y amor
En cualquier parte del [F]mundo no importa la religión
Por un beso de su [Dm]boca voy al cielo y hablo con [F]dios...
luis_sandoval49@yahoo.com

Important: The song above is NOT stored on the Chordie server. The original song is hosted at www.guitaretab.com. Chordie works as a search engine and provides on-the-fly formatting. Chordie does not index songs against artists'/composers' will. To remove this song please click here.

Text color:
Chord color:
Chord grids: 
Font size:    
Page size: 

Am C Dm F G
Rate #2 of 3 versions

Jango Player

Login - add to songbook

SHARE PAGE  




You need to log in to post comments