Guitar Tabs, Chords and Lyrics
Major upgrade!! After one year development the new version of Chordie is now online! Please give feedback.


Girlfriend  Avril Lavigne

 
 -------------------------------------------------------------------------------

Girlfriend - Avril Lavigne
 
 -------------------------------------------------------------------------------

Tabbed by:TeeHeeLollipop
E-mail:teehee_lollipop@hotmail.com
Hi Guys! This is my first tab, so if there are any mistakes, please tell me.
Also, I have spent a few hours just to find out what the guitars were playing
and I think i am 99% correct. But, I couldn't here Guitar 2 in the chorus
other than the instrumental part.If you guys have any suggestions, do let me
know! Anyways, enjoy this tab^^
Tuning: Standard EADBGe
Intro:
Guitar 1
[D5] [D5] [F#5] [F5]  
 
 e|----------------------------------------|x2
 B|----------------------------------------|x2
 G|7-----------------------777-------------|x2
 D|7-----------------------7774444455555555|x2
 A|5-----------------------5554444455555555|x2
 E|---------------------------2222233333333|x2

Guitar 2
[D5] [D5] [C#5] [D5] [E5]  
 
 e|----------------------------------------|x2
 B|----------------------------------------|x2
 G|7-----------------------7776666677799999|x2
 D|7-----------------------7776666677799999|x2
 A|5-----------------------5554444455577777|x2
 E|----------------------------------------|x2

Verse 1:
Guitar 1
[D5] [A5] [B5] [G5]  
 
 e|----------------------------------------------------------------|x2
 B|----------------------------------------------------------------|x2
 G|77-777-777-777-7------------------------------------------------|x2
 D|77-777-777-777-777-777-777-777-799-999-999-999-955-555-555-555-5|x2
 A|55-555-555-555-577-777-777-777-799-999-999-999-955-555-555-555-5|x2
 E|----------------55-555-555-555-577-777-777-777-733-333-333-333-3|x2

Guitar 2
[F#5] [F5] [F#5] [E5] [D#5]  
 
 e|----------------------------|x2|-------------------------------------------|
 B|----------------------------|x2|-------------------------------------------|
 G|1111-111111-111111-111111-12|x2|1111-111111-111111-111111-977-777-777-777-7|
 D|1111-111111-111111-111111-12|x2|1111-111111-111111-111111-977-777-777-777-7|
 A|9-9--9-9-9--9-9-9--9-9-9--10|x2|9-9--9-9-9--9-9-9--9-9-9--755-555-555-555-5|
 E|----------------------------|x2|-------------------------------------------|

Pre-Chorus:
Guitar 1
[B5] [F#5] [D5] [G5]  
 
 e|----------------------------------|
 B|----------------------------------|
 G|----------------------------------|
 D|9~-------4~-------7~-------5~---7~|
 A|9~-------4~-------7~-------5~---7~|
 E|7~-------2~-------5~-------3~---5~|

Guitar 2
[B5] [A5E5A5]  
 
 e|-----------------------------------|
 B|-----------------------------------|
 G|-----------------------------14--14|
 D|---------9-9-9-9-9-9-9-9-9-9-141414|
 A|---------9-9-9-9-9-9-9-9-9-9-121412|
 E|---------7-7-7-7-7-7-7-7-7-7---12--|

Chorus:
Guitar 1
[D5A5B5G5D5A5B5G5D5A5B5G5D5A5B5G5D5] [F#5] [F5]  
 
 e|------------------------------------------------|x2
 B|------------------------------------------------|x2
 G|77------77------77------77------777-------------|x2

D|777799557777995577779955777799557774444455555555|x2
A|557799555577995555779955557799555554444455555555|x2
 
 E|--557733--557733--557733--557733---2222233333333|x2

Guitar 2
[D5A5B5G5D5A5B5G5D5A5B5G5D5A5B5G5D5] [C#5] [D5] [E5]  
 
 e|------------------------------------------------|x2
 B|------------------------------------------------|x2
 G|77------77------77------77------7776666677799999|x2

D|777799557777995577779955777799557776666677799999|x2
A|557799555577995555779955557799555554444455577777|x2
 
 E|--557733--557733--557733--557733----------------|x2

Verse 2:
Guitar 1
[D5] [A5] [B5] [G5]  
 
 e|----------------------------------------------------------------|x2
 B|----------------------------------------------------------------|x2
 G|77-777-777-777-7------------------------------------------------|x2
 D|77-777-777-777-777-777-777-777-799-999-999-999-955-555-555-555-5|x2
 A|55-555-555-555-577-777-777-777-799-999-999-999-955-555-555-555-5|x2
 E|----------------55-555-555-555-577-777-777-777-733-333-333-333-3|x2

Guitar 2
[F#5] [F5] [F#5] [E5] [D#5]  
 
 e|----------------------------|x2|-------------------------------------------|
 B|----------------------------|x2|-------------------------------------------|
 G|1111-111111-111111-111111-12|x2|1111-111111-111111-111111-977-777-777-777-7|
 D|1111-111111-111111-111111-12|x2|1111-111111-111111-111111-977-777-777-777-7|
 A|9-9--9-9-9--9-9-9--9-9-9--10|x2|9-9--9-9-9--9-9-9--9-9-9--755-555-555-555-5|
 E|----------------------------|x2|-------------------------------------------|

Pre-Chorus:
Guitar 1
[B5] [F#5] [D5] [G5]  
 
 e|----------------------------------|
 B|----------------------------------|
 G|----------------------------------|
 D|9~-------4~-------7~-------5~---7~|
 A|9~-------4~-------7~-------5~---7~|
 E|7~-------2~-------5~-------3~---5~|

Guitar 2
[B5] [A5E5A5]  
 
 e|-----------------------------------|
 B|-----------------------------------|
 G|-----------------------------14--14|
 D|---------9-9-9-9-9-9-9-9-9-9-141414|
 A|---------9-9-9-9-9-9-9-9-9-9-121412|
 E|---------7-7-7-7-7-7-7-7-7-7---12--|

Chorus:
Guitar 1
[D5A5B5G5D5A5B5G5D5A5B5G5D5A5B5G5D5] [F#5] [F5]  
 
 e|------------------------------------------------|x2
 B|------------------------------------------------|x2
 G|77------77------77------77------777-------------|x2

D|777799557777995577779955777799557774444455555555|x2
A|557799555577995555779955557799555554444455555555|x2
 
 E|--557733--557733--557733--557733---2222233333333|x2

Guitar 2
[D5A5B5G5D5A5B5G5D5A5B5G5D5A5B5G5D5] [C#5] [D5] [E5]  
 
 e|------------------------------------------------|x2
 B|------------------------------------------------|x2
 G|77------77------77------77------7776666677799999|x2

D|777799557777995577779955777799557776666677799999|x2
A|557799555577995555779955557799555554444455577777|x2
 
 E|--557733--557733--557733--557733----------------|x2

Bridge:
Guitar 1+2
 
 e|--------------------------------|x2
 B|--------------------------------|x2
 G|7-------------------------------|x2
 D|7-------------------------------|x2
 A|5-------------------------------|x2
 E|--------------------------------|x2

Ending:
Guitar 1
[D5] [D5] [F#5] [F5]  
 
 e|----------------------------------------|
 B|----------------------------------------|
 G|7-----------------------777-------------|
 D|7-----------------------7774444455555555|
 A|5-----------------------5554444455555555|
 E|---------------------------2222233333333|

[D5A5B5G5D5A5B5G5D5A5B5G5D5A5B5G5D5] [F#5] [F5] [D5]  
 
 e|------------------------------------------------|x3|--|
 B|------------------------------------------------|x3|--|
 G|77------77------77------77------777-------------|x3|7~|

D|777799557777995577779955777799557774444455555555|x3|7~|
A|557799555577995555779955557799555554444455555555|x3|5~|
 
 E|--557733--557733--557733--557733---2222233333333|x3|--|

Guitar 2
[D5] [D5] [C#5] [D5] [E5]  
 
 e|----------------------------------------|
 B|----------------------------------------|
 G|7-----------------------7776666677799999|
 D|7-----------------------7776666677799999|
 A|5-----------------------5554444455577777|
 E|----------------------------------------|

[D5A5B5G5D5A5B5G5D5A5B5G5D5A5B5G5D5] [C#5] [D5] [E5] [D5]  
 
 e|------------------------------------------------|x3|--|
 B|------------------------------------------------|x3|--|
 G|77------77------77------77------7776666677799999|x3|7~|

D|777799557777995577779955777799557776666677799999|x3|7~|
A|557799555577995555779955557799555554444455577777|x3|5~|
 
 E|--557733--557733--557733--557733----------------|x3|--|

************************************
| - 1 beat
| ~ hold chord
************************************

Important: The song above is NOT stored on the Chordie server. The original song is hosted at www.guitaretab.com. Chordie works as a search engine and provides on-the-fly formatting. Chordie does not index songs against artists'/composers' will. To remove this song please click here.

Text color:
Chord color:
Chord grids: 
Font size:    
Page size: 

A5 B5 C#5 D#5 D5 E5 F#5 F5 G5
Rate #1 of 9 versions

Jango Player

Login - add to songbook

SHARE PAGE  




You need to log in to post comments