Guitar Tabs, Chords and Lyrics
Update 25:10. 13:00. Site is back up running again. Songbooks are recovered. Woring on getting search back up..


Made Me Madman  Backyard Babies

'MADE ME MADMAN' by Backyard Babies
Album: Total 13
Submitted by: Victor (vctrklndr(a)hotmail.com)
Tuning: step down (Eb Ab Db Gb Bb eb)
Chords used:
A5: 577xxx
G5: 355xxx
D5: x577xx
C5: x355xx
F5: x81010xx / 133xxx
E5: x799xx
(Intro)
GTR I
GT[A5]R II (with wah-wah)[G5] [D5]
 
 e|---------------------------------------------------------------------|
 B|---------------------------------------------------------------------|
 G|-----------------------7--------9-------------------------7--------9-|
 D|-7--7---10--10---7--7-----7--7------7--7---10--10---7--7-----7--7----|
 A|---------------------------------------------------------------------|
 E|---------------------------------------------------------------------|

GTR I
GT[A5]R II (with wah-wah)[G5] [D5]
 
 e|---------------------------------------------------------------------|
 B|---------------------------------------------------------------------|
 G|-----------------------7--------9-------------------------7--------9-|
 D|-7--7---10--10---7--7-----7--7------7--7---10--10---7--7-----7--7----|
 A|---------------------------------------------------------------------|
 E|---------------------------------------------------------------------|

[C5]One got down three to [A5]go
[C5]Well everybody cares
but no one seems to [A5]show
[C5]'Cause when I wake up in the morning I can't feel bad
[F5]for the party we never [E5]had
GTR I
GT[A5]R II (with wah-wah)[G5] [D5]
 
 e|---------------------------------------------------------------------|
 B|---------------------------------------------------------------------|
 G|-----------------------7--------9-------------------------7--------9-|
 D|-7--7---10--10---7--7-----7--7------7--7---10--10---7--7-----7--7----|
 A|---------------------------------------------------------------------|
 E|---------------------------------------------------------------------|

GTR I
GT[A5]R II (with wah-wah)[G5] [D5]
 
 e|---------------------------------------------------------------------|
 B|---------------------------------------------------------------------|
 G|-----------------------7--------9-------------------------7--------9-|
 D|-7--7---10--10---7--7-----7--7------7--7---10--10---7--7-----7--7----|
 A|---------------------------------------------------------------------|
 E|---------------------------------------------------------------------|

[C5]V.I.P. for the coolest [A5]he
A kick for the teeth on
the boy without a record [A5]deal (that's how it is)
[C5]Four got down but for the next time we [F5]might hang [E5]around
GTR I
GT[A5]R II (with wah-wah)[G5] [D5]
 
 e|---------------------------------------------------------------------|
 B|---------------------------------------------------------------------|
 G|-----------------------7--------9-------------------------7--------9-|
 D|-7--7---10--10---7--7-----7--7------7--7---10--10---7--7-----7--7----|
 A|---------------------------------------------------------------------|
 E|---------------------------------------------------------------------|

Wow! Yeah! I might make a madman
GTR I
GT[A5]R II (with wah-wah)[G5] [D5]
 
 e|---------------------------------------------------------------------|
 B|---------------------------------------------------------------------|
 G|-----------------------7--------9-------------------------7--------9-|
 D|-7--7---10--10---7--7-----7--7------7--7---10--10---7--7-----7--7----|
 A|---------------------------------------------------------------------|
 E|---------------------------------------------------------------------|

Wow! Yeah! 'Cause you made me madman
(Solo)
GTR I same as intro (A5 G5 D5)
GTR II
 
 e|-------------------------5--------5--------5------|
 B|-5-------5-------5-------8b(10)---8b(10)---8b(10)-|
 G|-7b(9)---7b(9)---7b(9)----------------------------|
 D|--------------------------------------------------|
 A|--------------------------------------------------|
 E|--------------------------------------------------|
 e|-------------------------12h15p12----12h15p12----12h15p12----12h15p12----12------|
 B|-5-------5-------5----------------15----------15----------15----------15-15b(17)-|
 G|-7b(9)---7b(9)---7b(9)-----------------------------------------------------------|
 D|---------------------------------------------------------------------------------|
 A|---------------------------------------------------------------------------------|
 E|---------------------------------------------------------------------------------|

(Bridge) - F5 is played on first fret (133xxx)
[F5]All the [G5]trouble that has [A5]stuck with us so long[A5] [G5] [F5]
[F5]And all the [G5]problems that have [A5]fucked with us so wrong[A5] [G5] [F5]
[F5]Not in the right time fatso, [E5]straight in line forget so-[A5]now!
GTR I
GT[A5]R II (with wah-wah)[G5] [D5]
 
 e|---------------------------------------------------------------------|
 B|---------------------------------------------------------------------|
 G|-----------------------7--------9-------------------------7--------9-|
 D|-7--7---10--10---7--7-----7--7------7--7---10--10---7--7-----7--7----|
 A|---------------------------------------------------------------------|
 E|---------------------------------------------------------------------|

Wow! Yeah! I might make a madman
GTR I
GT[A5]R II (with wah-wah)[G5] [D5]
 
 e|---------------------------------------------------------------------|
 B|---------------------------------------------------------------------|
 G|-----------------------7--------9-------------------------7--------9-|
 D|-7--7---10--10---7--7-----7--7------7--7---10--10---7--7-----7--7----|
 A|---------------------------------------------------------------------| x2
 E|---------------------------------------------------------------------|

Wow! Yeah! 'Cause you made me madman
3rd time Dregen plays something similar to the solo.
(Outro)
GTR I
 
 e|------------------------------------------------|
 B|------------------------------------------------|
 G|-----------5--5--------------------------2----2-|
 D|-7--7------5--5------3--3------2--2------2----2-|
 A|-7--7------3--3------3--3------2--2------0----0-|
 E|-5--5----------------1--1------0--0-------------|

GTR II
 
 e|------------------------------------------------|
 B|------------------------------------------------|
 G|-----------5--5------10-10-----9--9------2----2-|
 D|-7--7------5--5------10-10-----9--9------2----2-|
 A|-7--7------3--3------8--8------7--7------0----0-|
 E|-5--5-------------------------------------------|


Important: The song above is NOT stored on the Chordie server. The original song is hosted at www.guitaretab.com. Chordie works as a search engine and provides on-the-fly formatting. Chordie does not index songs against artists'/composers' will. To remove this song please click here.

Text color:
Chord color:
Chord grids: 
Font size:    
Page size: 

A5 C5 D5 E5 F5 G5
Rate #2 of 6 versions

Login - add to songbook

SHARE PAGE  



You need to log in to post comments