Guitar Tabs, Chords and Lyrics
Server problems seems to be fixed. Chordie has been experiencing problems with songs disappearing. These issues now seems to be fixed, but still verifying the fix. If you find anything strange, please email admin@chordie.com.


Sorrow  Bad Religion

Song: Sorrow (Acoustic)
Artist: Bad Religion
Tuning: Standard (Capo 2)
I saw that there wasn't a very good version of this song tabbed out. The
best out of all of them was ixnayi's. So I based my version on his, but I
noticed that he had some of the chords in the wrong places. Plus, none of
the versions have the solo. So I tabbed out the solo twice: One without the
capo, and one with the capo...depending on how you want to play it.
Chords Used:
[Am] [F] [G] [C] [Em7]  
 
 |--0--|--1--|--3--|--0--|--0--|
 |--1--|--1--|--3--|--1--|--0--|
 |--2--|--2--|--0--|--0--|--0--|
 |--2--|--3--|--0--|--2--|--0--|
 |--0--|--0--|--2--|--3--|--2--|
 |--0--|--0--|--3--|--0--|--0--|

Hammer-on Chart: (Played over the chords)
[C] [G] [Am]  
 
 |-------------|-------------|-------------|
 |o-----------o|o-----------o|o-----------o|
 |----------0--|-------------|----------2--|
 |------0h2----|----------0--|------0h2----|
 |o--3--------o|o-----0h2---o|o-0---------o|
 |-------------|--3----------|-------------|

[Am] Let me take you [F]to the [G]herding [C]ground,[Em7]
Where [Am]all good [F]men are [C]trampled [G]down,
Just to [C]settle a [F]bet that could [G]not be [Am]won,
Between a [F]prideful [G]father and his [C]son.[Em7]
Won?t you [Am]guide me [F]now for [G]I can?t [C]see,[Em7]
A [Am]reason for this [F]suffering and this [C]long miser[G]y.
What if [C]every living [F]soul could be [G]upright and [Am]strong?
Well, [F]then I [G]do i[C]magine
[C]There [Em7]will [Am]be [F]sor[C]row.
And [C]there [Em7]will [Am]be [F]sor[C]row.
And [C]there [Em7]will [Am]be [F]sor[C]row, no [G]more.[C]
When all [Am]soldiers[F] lay their [G]weapons [C]down,[Em7]
Or when all [Am]kings and [F]queens re[C]linquish their [G]crown,
Or when the [C]only true mes[F]siah rescues [G]us from our[Am]selves...
It?s [F]easy [G]to i[C]magine
[C]There [Em7]will [Am]be [F]sor[C]row.
And [C]there [Em7]will [Am]be [F]sor[C]row.
And [C]there [Em7]will [Am]be [F]sor[C]row, no [G]more. No [C]more
Solo: (Without Capo)
[Am] [F] [G] [C] [Em7]  
 
 |--7-5---------------------------------|
 |------8p7-5-3h5-7--5-3h5p3---------3--|
 |---------------------------4-2h4-7----|
 |--------------------------------------|
 |--------------------------------------|
 |--------------------------------------|

[Am] [F] [C] [G]  
 
 |----------------------------|
 |--5b6-5-3p0------3----------|
 |-------------2h4---4-2------|
 |-----------------------4-2--|
 |----------------------------|
 |----------------------------|

[C] [F] [G] [Am]  
 
 |-----------------------------------------|
 |-----------------------------------------|
 |-----------------2----4p2----------------|
 |--------2--3--4-----4-----4-2---4-2p0----|
 |--2-2-5-------------------------------2--|
 |-----------------------------------------|

[F] [G] [C]  
 
 |------2-3p2------------------------|
 |--3/5-------5p3-5p3-------3-2-2h3--|
 |--------------------4-2/4----------|
 |-----------------------------------|
 |-----------------------------------|
 |-----------------------------------|

(With Capo)
[Am] [F] [G] [C] [Em7]  
 
 |--5-3---------------------------------|
 |------6p5-3-1h3-5--3-1h3p1---------1--|
 |---------------------------2-0h2-5----|
 |--------------------------------------|
 |--------------------------------------|
 |--------------------------------------|

[Am] [F] [C] [G]  
 
 |----------------------------|
 |--3b4-3----------1----------|
 |--------5p2--0h2---2-0------|
 |-----------------------2-0--|
 |----------------------------|
 |----------------------------|

[C] [F] [G] [Am]  
 
 |-----------------------------------------|
 |-----------------------------------------|
 |-----------------0----2p0----------------|
 |--------0--1--2-----2-----2-0---2--------|
 |--0-0-3---------------------------5p3-0--|
 |-----------------------------------------|

[F] [G] [C]  
 
 |------0-1p0------------------------|
 |--1/3-------3p1-3p1----------------|
 |--------------------2-----5-4-4h5--|
 |----------------------5/7----------|
 |-----------------------------------|
 |-----------------------------------|

[C]There [Em7]will [Am]be [F]sor[C]row.
And [C]there [Em7]will [Am]be [F]sor[C]row.
And [C]there [Em7]will [Am]be [F]sor[C]row, no [G]more.
And [C]there [Em7]will [Am]be [F]sor[C]row.
And [C]there [Em7]will [Am]be [F]sor[C]row.
And [C]there [Em7]will [Am]be [F]sor[C]row, no [G]more. No [C]more
The End
Hope you like it

Important: The song above is NOT stored on the Chordie server. The original song is hosted at www.guitaretab.com. Chordie works as a search engine and provides on-the-fly formatting. Chordie does not index songs against artists'/composers' will. To remove this song please click here.

Text color:
Chord color:
Chord grids: 
Font size:    
Page size: 

Am C Em7 F G
Rate #1 of 9 versions

Jango Player

Login - add to songbook

SHARE PAGE  



You need to log in to post comments