Guitar Tabs, Chords and Lyrics
Server problems seems to be fixed. Chordie has been experiencing problems with songs disappearing. These issues now seems to be fixed, but still verifying the fix. If you find anything strange, please email admin@chordie.com.


Submission Complete  Bad Religion

As recorded by Bad Religion
(From the 2007 Album NEW MAPS OF HELL)
Transcribed by Whoabot
Words and Music by Bad Religion
Arranged by Bad Religion
Gtr I (E A D G B E)
Gtr II (E A D G B E)
Gtr III (E A D G B E)
Intro
Q=138
[A5] [Bb5] [A5] [Bb5] 
[5/4] Gtrs I, II
PM
[E] [E] [E] [E] [E] [E] [E] [E] [E] [E] [E] [E] [E] [E] [E] [E] [E] [E] [E] [E]  
 
 |-----------------------------|-----------------------------||
 |-----------------------------|-----------------------------||
 |-----------------------------|-----------------------------||
 |-7--x--7--x--7--x--7--x--7-8-|-7--x--7--x--7--x--7--x--7-8-||
 |-7--x--7--x--7--x--7--x--7-8-|-7--x--7--x--7--x--7--x--7-8-||
 |-5--5--5--5--5-6-|-5--5--5--5--5-6-||

Verse
[A5] [Bb5] [A5] [Bb5] 
[4/4]  
[E] [E] [E] [E] [E] [E] [E] [E] [E] [E] [E] [E] [E] [E] [E] [E]  
 
 ||------------------------|-----------------------|
 ||o-----------------------|-----------------------|
 ||------------------------|-----------------------|
 ||--7--x--7--x--7--x--7-8-|-7--x--7--x--7--x--7-8-|
 ||o-7--x--7--x--7--x--7-8-|-7--x--7--x--7--x--7-8-|
 ||--5--5--5--5-6-|-5--5--5--5-6-|

[A5] [Bb5] [A5] [Bb5] 
[E] [E] [E] [E] [E] [E] [E] [E] [E] [E] [E] [E] [E] [E] [E] [E]  
 
 |-----------------------|-------------------------||
 |-----------------------|------------------------o||
 |-----------------------|-------------------------||
 |-7--x--7--x--7--x--7-8-|-7--x--7--x--7--x--7-8---||
 |-7--x--7--x--7--x--7-8-|-7--x--7--x--7--x--7-8--o||
 |-5--5--5--5-6-|-5--5--5--5-6---||

horus
1.
[D5]E E E E q [C5]Q [Bb5]E E E E E [F5] E E [C5] E [D5]E E E E q [C5]Q [Bb5]E E E E [A5]E E E E
 
 ||----------------|-----------------------|---------------|-------------------||
 ||o---------------|-----------------------|---------------|------------------o||
 ||--7-7-7-7-7--5--|-3-3-3-3---/10--10-----|-7-7-7-7-7--5--|-------------------||
 ||--7-7-7-7-7--5--|-3-3-3-3-3-/10--10-----|-7-7-7-7-7--5--|-8-8-8-8-7-7-7-7---||
 ||o-5-5-5-5-5--3--|-1-1-1-1-1--/8---8--10-|-5-5-5-5-5--3--|-8-8-8-8-7-7-7-7--o||
 ||----------------|-----------/(8)-(8)--8-|---------------|-6-6-6-6-5-5-5-5---||

2.
[D5] [C5] [Bb5] [C5]  
Gtr I[2/4] [4/4]
E E E E E E E E E E E E E E E E E E E E E E E E E E Q
 
 |-----------------|---------|-----------------|-----------------||
 |-----------------|---------|-----------------|-----------------||
 |-7-7-7-7-5-5-5-5-|-3-3-3-3-|-5-5-5-5-5-5-5-5-|-5-5-5-5-5-------||
 |-7-7-7-7-5-5-5-5-|-3-3-3-3-|-5-5-5-5-5-5-5-5-|-5-5-5-5-5---5---||
 |-5-5-5-5-3-3-3-3-|-1-1-1-1-|-3-3-3-3-3-3-3-3-|-3-3-3-3-3-7-----||
 |-----------------|---------|-----------------|-----------------||

|
| Gtr II
| E E E E E E E E E E E E E E E E E E E E E E E E E E E E
 
 |-----------------|---------|-----------------|-----------------||
 |-----------------|---------|-----------------|-----------------||
 |-7-7-7-7-5-5-5-5-|-3-3-3-3-|-5-5-5-5-5-5-5-5-|-5-5-5-5-5-5-5-5-||
 |-7-7-7-7-5-5-5-5-|-3-3-3-3-|-5-5-5-5-5-5-5-5-|-5-5-5-5-5-5-5-5-||
 |-5-5-5-5-3-3-3-3-|-1-1-1-1-|-3-3-3-3-3-3-3-3-|-3-3-3-3-3-3-3-3-||
 |-----------------|---------|-----------------|-----------------||

Pre-Verse
[A5] [Bb5] [A5] [Bb5] 
[5/4] W +Q +H +E E Q Q
 
 |-------------------------------|---------------------------------|
 |-------------------------------|---------------------------------|
 |-------------------------------|---------------------------------|
 |-7-----------------------(7)---|-(7)-----------(7)-----5-----8---|
 |-------------------------------|--------------------7------------|
 |-------------------------------|---------------------------------|

|
| PM
| E E E E E E E E E E E E E E E E E E E E
 
 |-------------------------------|---------------------------------|
 |-------------------------------|---------------------------------|
 |-------------------------------|---------------------------------|
 |-7--x--7--x--7--x--7--x---7--8-|--7---x--7--x---7---x--7--x--7-8-|
 |-7--x--7--x--7--x--7--x---7--8-|--7---x--7--x---7---x--7--x--7-8-|
 |-5--5--5--5---5--6-|--5---5---5---5--5-6-|

[A5]Q. E H. [Bb5] [A5]+W +Q[Bb5]
 
 |-------------------------------|-----------------------------------||
 |-------------------------------|-----------------------------------||
 |-----------7-------------------|-----------------------------------||
 |-7------------7----------------|-(7)-----------------------(7)-----||
 |-------------------------------|-----------------------------------||
 |-------------------------------|-----------------------------------||

|
| PM
| E E E E E E E E E E E E E E E E E E E E
 
 |-------------------------------|-----------------------------------||
 |-------------------------------|-----------------------------------||
 |-------------------------------|-----------------------------------||
 |-7---x--7--x--7---x--7--x--7-8-|--7---x--7--x--7--x--7--x---7--8---||
 |-7---x--7--x--7---x--7--x--7-8-|--7---x--7--x--7--x--7--x---7--8---||
 |-5---5--5---5--5-6-|--5---5--5--5---5--6---||

Verse
[A5] [Bb5] [A5] [Bb5] 
[4/4] Gtrs I, II
[E] [E] [E] [E] [E] [E] [E] [E] [E] [E] [E] [E] [E] [E] [E] [E]  
 
 ||------------------------|-----------------------|
 ||o-----------------------|-----------------------|
 ||------------------------|-----------------------|
 ||--7--x--7--x--7--x--7-8-|-7--x--7--x--7--x--7-8-|
 ||o-7--x--7--x--7--x--7-8-|-7--x--7--x--7--x--7-8-|
 ||--5--5--5--5-6-|-5--5--5--5-6-|

[A5] [Bb5] [A5] [Bb5] 
[E] [E] [E] [E] [E] [E] [E] [E] [E] [E] [E] [E] [E] [E] [E] [E]  
 
 |-----------------------|-------------------------||
 |-----------------------|------------------------o||
 |-----------------------|-------------------------||
 |-7--x--7--x--7--x--7-8-|-7--x--7--x--7--x--7-8---||
 |-7--x--7--x--7--x--7-8-|-7--x--7--x--7--x--7-8--o||
 |-5--5--5--5-6-|-5--5--5--5-6---||

Chorus
1.
[D5]E E E E q [C5]Q [Bb5]E E E E E [F5] E E [C5] E [D5]E E E E q [C5]Q [Bb5]E E E E [A5]E E E E
 
 ||----------------|-----------------------|---------------|-------------------||
 ||o---------------|-----------------------|---------------|------------------o||
 ||--7-7-7-7-7--5--|-3-3-3-3---/10--10-----|-7-7-7-7-7--5--|-------------------||
 ||--7-7-7-7-7--5--|-3-3-3-3-3-/10--10-----|-7-7-7-7-7--5--|-8-8-8-8-7-7-7-7---||
 ||o-5-5-5-5-5--3--|-1-1-1-1-1--/8---8--10-|-5-5-5-5-5--3--|-8-8-8-8-7-7-7-7--o||
 ||----------------|-----------/(8)-(8)--8-|---------------|-6-6-6-6-5-5-5-5---||

2.
[D5] [C5] [Bb5] [C5]  
[2/4] [4/4]  
[E] [E] [E] [E] [E] [E] [E] [E] [E] [E] [E] [E] [E] [E] [E] [E] [E] [E] [E] [E] [E] [E] [E] [E] [E] [E] [E] [E]  
 
 |-----------------|---------|-----------------|-----------------||
 |-----------------|---------|-----------------|-----------------||
 |-7-7-7-7-5-5-5-5-|-3-3-3-3-|-5-5-5-5-5-5-5-5-|-5-5-5-5-5-5-5-5-||
 |-7-7-7-7-5-5-5-5-|-3-3-3-3-|-5-5-5-5-5-5-5-5-|-5-5-5-5-5-5-5-5-||
 |-5-5-5-5-3-3-3-3-|-1-1-1-1-|-3-3-3-3-3-3-3-3-|-3-3-3-3-3-3-3-3-||
 |-----------------|---------|-----------------|-----------------||

Interlude
[D5]Gtr I[Bb5] [F5] [C5] [Bb5]
Q Q H W W H E E Q
 
 ||------------------|------------------||-----------------|-------------------|
 ||o-----------------|-----------------o||-----------------|-------------------|
 ||----------7-------|------------------||-----------------|-------------------|
 ||------7-----------|------------------||-----------------|-------------------|
 ||o-5---------------|-----------------o||-----------------|-----------x-13\---|
 ||------------------|------------------||-----------------|-------------------|

|
| Gtr II
| E E E E E E E E E E E E E E E E E E E E E E E E E E E E E E Q
 
 ||------------------|------------------||-----------------|-------------------|
 ||o-----------------|-----------------o||-----------------|-------------------|
 ||--7-7-7-7-7-7-7-7-|------------------||-----------------|-5-5-5-5-5-5--3----|
 ||--7-7-7-7-7-7-7-7-|-8-8-8-8-8-8-8-8--||-3-3-3-3-3-3-3-3-|-5-5-5-5-5-5--3----|
 ||o-5-5-5-5-5-5-5-5-|-8-8-8-8-8-8-8-8-o||-3-3-3-3-3-3-3-3-|-3-3-3-3-3-3--1----|
 ||------------------|-6-6-6-6-6-6-6-6--||-1-1-1-1-1-1-1-1-|-------------------|

[A5] [Bb5] [A5] [Bb5] 
[5/4] W +Q +H +E E Q Q
 
 |-------------------|----------------------|
 |-------------------|----------------------|
 |-------------------|----------------------|
 |-7-----------(7)---|-(7)-----(7)---5--8---|
 |-------------------|-------------7--------|
 |-------------------|----------------------|

|
| q q q q E E q q q q E E
 
 |-------------------|----------------------|
 |-------------------|----------------------|
 |-------------------|----------------------|
 |-7--7--7--7---7--8-|--7---7---7----7--7-8-|
 |-7--7--7--7---7--8-|--7---7---7----7--7-8-|
 |-5--5--5--5---5--6-|--5---5---5----5--5-6-|

[A5]Q. E H. [Bb5] [A5]+H. +E E Q[Bb5]
 
 |--------------------|------------------------||
 |--------------------|------------------------||
 |-------7------------|------------------------||
 |-7-------7----------|-(7)--------(7)---5-----||
 |--------------------|----------------7-------||
 |--------------------|------------------------||

|
| q q q q E E q q q q E E
 
 |--------------------|------------------------||
 |--------------------|------------------------||
 |--------------------|------------------------||
 |-7---7---7---7--7-8-|--7---7--7---7----7-8---||
 |-7---7---7---7--7-8-|--7---7--7---7----7-8---||
 |-5---5---5---5--5-6-|--5---5--5---5----5-6---||

Guitar Solo
[A5] [Bb5] [A5] [Bb5] 
[4/4] Gtr III
Q S E. Q S S E Q S S E H
 
 |-12--10p8---------------|---------------------|
 |-----------11--11h13p11-|-10--10h11p10-8------|
 |------------------------|---------------------|
 |------------------------|---------------------|
 |------------------------|---------------------|
 |------------------------|---------------------|

|
| q q q E E q q q E E
 
 |------------------------|---------------------|
 |------------------------|---------------------|
 |------------------------|---------------------|
 |--7---7-----7---7-----8-|--7---7-------7--7-8-|
 |--7---7-----7---7-----8-|--7---7-------7--7-8-|
 |--5---5-----5---5-----6-|--5---5-------5--5-6-|

[A5] [Bb5] [A5]~[Bb5]
+E E. E. E. E. S S W
 
 |---------------------------|----------------|
 |-(8)\----------------------|----------------|
 |------/9----7--6--7----6h7p|=6--------------|
 |---------------------------|----------------|
 |---------------------------|----------------|
 |---------------------------|----------------|

|
| q q q E E q q q E E
 
 |---------------------------|----------------|
 |---------------------------|----------------|
 |---------------------------|----------------|
 |--7-------7----7-----7-8---|-7--7--7--7-8---|
 |--7-------7----7-----7-8---|-7--7--7--7-8---|
 |--5-------5----5-----5-6---|-5--5--5--5-6---|

[A5]PM| ~~~~ [Bb5] [A5] ~[Bb5]
S S a E. E. Q. S S E. E. S S Q +Q
 
 |-----------------------------|-----------------------|
 |-x-x-------------------------|-----------------------|
 |-x-x-/6h7----9--/10-----10p9-|-9--7----6h7p6--(6)/---|
 |-x-x-------------------------|-----------------------|
 |-x-x-------------------------|-----------------------|
 |-----------------------------|-----------------------|

|
| q q q E E q q q E E
 
 |-----------------------------|-----------------------|
 |-----------------------------|-----------------------|
 |-----------------------------|-----------------------|
 |-7---------7------7---7--8---|-7-----7-----7---7---8-|
 |-7---------7------7---7--8---|-7-----7-----7---7---8-|
 |-5---------5------5---5--6---|-5-----5-----5---5---6-|

[A5] ~~~~[Bb5] [A5] [Bb5]
Q Q S S S S Q Q Q Q Q
 
 |-[12]--10--9h10p9h10-9\---|-10--12--13--15---||
 |--------------------------|--8--10--11--13---||
 |--------------------------|------------------||
 |--------------------------|------------------||
 |--------------------------|------------------||
 |--------------------------|------------------||

|
| q q q E E q q q E E
 
 |--------------------------|------------------||
 |--------------------------|------------------||
 |--------------------------|------------------||
 |---7----7--7---------7--8-|--7---7---7---7-8-||
 |---7----7--7---------7--8-|--7---7---7---7-8-||
 |---5----5--5---------5--6-|--5---5---5---5-6-||

Out-Chorus
[D5] Q +Q +H [C5] [Bb5] +Q. +Q [F5] Q.[C5]
 
 |-17-------(17)---(17)-----|-(17)-----(17)\----------------|
 |-17b18====(17)---(17)-----|-(17)-----(17)r\---------------|
 |--------------------------|-------------------------------|
 |--------------------------|-------------------------------|
 |--------------------------|-------------------------------|
 |--------------------------|-------------------------------|

|
| Gtrs I, II
| E E E E q Q E E E E E E E E
 
 |--------------------------|-------------------------------|
 |--------------------------|-------------------------------|
 |--7-----7---7--7---7---5--|---3--3-3---3------/10--10-----|
 |--7-----7---7--7---7---5--|---3--3-3---3----3-/10--10-----|
 |--5-----5---5--5---5---3--|---1--1-1---1----1--/8---8--10-|
 |--------------------------|-------------------/(8)-(8)--8-|

[D5]W [C5] [Bb5]W[A5]
 
 |---------------|-----------------|
 |---------------|-----------------|
 |---------------|-----------------|
 |---------------|-----------------|
 |---------------|-----------------|
 |---------------|-----------------|

|
| E E E E q Q E E E E E E E E
 
 |---------------|-----------------|
 |---------------|-----------------|
 |-7-7-7-7-7--5--|-----------------|
 |-7-7-7-7-7--5--|-8-8-8-8-7-7-7-7-|
 |-5-5-5-5-5--3--|-8-8-8-8-7-7-7-7-|
 |---------------|-6-6-6-6-5-5-5-5-|

[D5]Gtrs I, II[C5] [Bb5] [F5] [C5] [D5] [C5]
E E E E q Q E E E E E E E E E E E E E E E E
 
 |---------------|-----------------------|-----------------|
 |---------------|-----------------------|-----------------|
 |-7-7-7-7-7--5--|-3-3-3-3---/10--10-----|-7-7-7-7-5-5-5-5-|
 |-7-7-7-7-7--5--|-3-3-3-3-3-/10--10-----|-7-7-7-7-5-5-5-5-|
 |-5-5-5-5-5--3--|-1-1-1-1-1--/8---8--10-|-5-5-5-5-3-3-3-3-|
 |---------------|-----------/(8)-(8)--8-|-----------------|

[Bb5] [C5]  
[2/4] [4/4]  
[E] [E] [E] [E] [E] [E] [E] [E] [E] [E] [E] [E] [E] [E] [E] [E] [E] [E] [E] [E]  
 
 |---------|-----------------|-------------------||
 |---------|-----------------|-------------------||
 |-3-3-3-3-|-5-5-5-5-5-5-5-5-|-5-5-5-5-5-5-5-5---||
 |-3-3-3-3-|-5-5-5-5-5-5-5-5-|-5-5-5-5-5-5-5-5---||
 |-1-1-1-1-|-3-3-3-3-3-3-3-3-|-3-3-3-3-3-3-3-3---||
 |---------|-----------------|-------------------||

Outro Part 1
[Dm]Gtr I[Bb5] [F5] [C5] [B5] [Bb5]
\1
Q Q H +W W W
 
 ||------------------|--------------------||-----------------|------------------|
 ||o-----------------|-------------------o||-----------------|------------------|
 ||----------7-------|-(7)----------------||-----------------|------------------|
 ||------7-----------|--------------------||-----------------|------------------|
 ||o-5---------------|-------------------o||-----------------|------------------|
 ||------------------|--------------------||-----------------|------------------|

|
| Gtr II
| E E E E E E E E E E E E E E E E E E E E E E E E E E E E E E E E
 
 ||------------------|--------------------||-----------------|------------------|
 ||o-6-6-6-6-6-6-6-6-|-------------------o||-----------------|------------------|
 ||--7-7-7-7-7-7-7-7-|--------------------||-----------------|-5-5-5-5-5-4-4-3--|
 ||--7-7-7-7-7-7-7-7-|--8--8-8-8-8-8-8-8--||-3-3-3-3-3-3-3-3-|-5-5-5-5-5-4-4-3--|
 ||o-5-5-5-5-5-5-5-5-|--8--8-8-8-8-8-8-8-o||-3-3-3-3-3-3-3-3-|-3-3-3-3-3-2-2-1--|
 ||------------------|--6--6-6-6-6-6-6-6--||-1-1-1-1-1-1-1-1-|------------------|

[Dm]Q Q H [Bb5]W [F5]W [C5]W[B5] [Bb5]
 
 ||------------------|------------------||-----------------|------------------||
 ||o-----------------|-----------------o||-----------------|------------------||
 ||----------7-------|------------------||-----------------|------------------||
 ||------7-----------|------------------||-----------------|------------------||
 ||o-5---------------|-----------------o||-----------------|------------------||
 ||------------------|------------------||-----------------|------------------||

|
| E E E E E E E E E E E E E E E E E E E E E E E E E E E E E E E E
 
 ||------------------|------------------||-----------------|------------------||
 ||o-6-6-6-6-6-6-6-6-|-----------------o||-----------------|------------------||
 ||--7-7-7-7-7-7-7-7-|------------------||-----------------|-5-5-5-5-5-4-4-3--||
 ||--7-7-7-7-7-7-7-7-|-8-8-8-8-8-8-8-8--||-3-3-3-3-3-3-3-3-|-5-5-5-5-5-4-4-3--||
 ||o-5-5-5-5-5-5-5-5-|-8-8-8-8-8-8-8-8-o||-3-3-3-3-3-3-3-3-|-3-3-3-3-3-2-2-1--||
 ||------------------|-6-6-6-6-6-6-6-6--||-1-1-1-1-1-1-1-1-|------------------||

Outro
[A5] [Bb5] [A5] [Bb5] 
[5/4] W +Q +H +E E Q Q
 
 ||--------------------|----------------------|
 ||o-------------------|----------------------|
 ||--------------------|----------------------|
 ||--7-----------(7)---|-(7)-----(7)---5--8---|
 ||o-------------------|-------------7--------|
 ||--------------------|----------------------|

|
| q q q q E E q q q q E E
 
 ||--------------------|----------------------|
 ||o-------------------|----------------------|
 ||--------------------|----------------------|
 ||--7--7--7--7---7--8-|--7---7---7----7--7-8-|
 ||o-7--7--7--7---7--8-|--7---7---7----7--7-8-|
 ||--5--5--5--5---5--6-|--5---5---5----5--5-6-|

[A5]Q. E H. [Bb5] [A5]+H. +E E Q [Bb5] 4x
 
 |--------------------|------------------------||
 |--------------------|-----------------------o||
 |-------7------------|------------------------||
 |-7-------7----------|-(7)--------(7)---5-----||
 |--------------------|----------------7------o||
 |--------------------|------------------------||

|
| q q q q E E q q q q E E 4x
 
 |--------------------|------------------------||
 |--------------------|-----------------------o||
 |--------------------|------------------------||
 |-7---7---7---7--7-8-|--7---7--7---7----7-8---||
 |-7---7---7---7--7-8-|--7---7--7---7----7-8--o||
 |-5---5---5---5--5-6-|--5---5--5---5----5-6---||

[A5]W +Q [Bb5] [A5]+H +E E Q Q[Bb5]
 
 ||------------------------|------------------------|
 ||o-----------------------|------------------------|
 ||------------------------|------------------------|
 ||--7---------------(7)---|-(7)-----(7)---5---8----|
 ||o-----------------------|-------------7----------|
 ||------------------------|------------------------|

|
| q q q q E E q q q q E E
 
 ||------------------------|------------------------|
 ||o-----------------------|------------------------|
 ||------------------------|------------------------|
 ||--7---7---7---7----7--8-|--7---7---7----7---7--8-|
 ||o-7---7---7---7----7--8-|--7---7---7----7---7--8-|
 ||--5---5---5---5----5--6-|--5---5---5----5---5--6-|

|
| Gtr III
| >
| E E E E E E E E Q +W +Q
 
 ||-------------------5----|-(5)--------------(5)---|
 ||o-----------5-6-8-------|------------------------|
 ||----------7-------------|------------------------|
 ||----7---7---------------|------------------------|
 ||o-7---7-----------------|------------------------|
 ||------------------------|------------------------|

[A5]Q. E H. [Bb5] [A5]+H. +E E Q [Bb5] 5x
 
 |-----------------------|-------------------------||
 |-----------------------|------------------------o||
 |--------7--------------|-------------------------||
 |-7--------7------------|-(7)--------(7)----5-----||
 |-----------------------|----------------7-------o||
 |-----------------------|-------------------------||

|
| q q q q E E q q q q E E 5x
 
 |-----------------------|-------------------------||
 |-----------------------|------------------------o||
 |-----------------------|-------------------------||
 |-7----7---7----7---7-8-|--7---7--7---7-----7--8--||
 |-7----7---7----7---7-8-|--7---7--7---7-----7--8-o||
 |-5----5---5----5---5-6-|--5---5--5---5-----5--6--||

|
| >
| E E E E E E E E Q +W +Q 5x
 
 |---------------5-6-5---|-(5)--------------(5)----||
 |----------5--6---------|------------------------o||
 |-----------------------|-------------------------||
 |----7---7--------------|-------------------------||
 |-7----7----------------|------------------------o||
 |-----------------------|-------------------------||

[A5]W +Q [Bb5] [A5]+H +E E Q Q[Bb5]
 
 |-----------------------|------------------------*|
 |-----------------------|------------------------*|
 |-----------------------|------------------------*|
 |-7---------------(7)---|-(7)-----(7)---5---8----*|
 |-----------------------|-------------7----------*|
 |-----------------------|------------------------*|

|
| q q q q E E q q q q E E
 
 |-----------------------|------------------------*|
 |-----------------------|------------------------*|
 |-----------------------|------------------------*|
 |-7---7---7---7----7--8-|--7---7---7----7---7--8-*|
 |-7---7---7---7----7--8-|--7---7---7----7---7--8-*|
 |-5---5---5---5----5--6-|--5---5---5----5---5--6-*|

|
| E E E E E E E E Q +W +Q
 
 |------------------5----|-(5)--------------(5)---*|
 |-----------5-6-8-------|------------------------*|
 |---------7-------------|------------------------*|
 |---7---7---------------|------------------------*|
 |-7---7-----------------|------------------------*|
 |-----------------------|------------------------*|

Duration Legend
 
 ---------------
 W - whole; H - half; Q - quarter; E - 8th; S - 16th; T - 32nd; X - 64th; a - acciaccatura

+ - note tied to previous; . - note dotted; .. - note double dotted
Uncapitalized letters represent notes that are staccato (1/2 duration)
Irregular groupings are notated above the duration line
Duration letters will always appear directly above the note/fret number it represents the
duration for. Duration letters with no fret number below them represent rests. Multi-
bar rests are notated in the form Wxn, where n is the number of bars to rest for. Low
melody durations appear below the staff
Tablature Legend
 
 ----------------

h - hammer-on
p - pull-off
b - bend
pb - pre-bend
r - bend release (if no number after the r, then release immediately)
/\ - slide into or out of (from/to "nowhere")
s - legato slide
S - shift slide
- natural harmonic
(n) - artificial harmonic
n(n) - tapped harmonic
~ - vibrato
tr - trill
T - tap
TP - trem. picking
PM - palm muting
\n/ - tremolo bar dip; n = amount to dip
\n - tremolo bar down
n/ - tremolo bar up
/n\ - tremolo bar inverted dip
= - hold bend; also acts as connecting device for hammers/pulls
- volume swell (louder/softer)
x - on rhythm slash represents muted slash
o - on rhythm slash represents single note slash
Misc Legend
 
 -----------

| - bar
|| - double bar
||o - repeat start
o|| - repeat end
*| - double bar (ending)
: - bar (freetime)
$ - Segno
& - Coda
Tempo markers - = BPM(8/16=s8/s16), where s8 = swing 8ths, s16 = swing 16ths

Important: The song above is NOT stored on the Chordie server. The original song is hosted at www.guitaretab.com. Chordie works as a search engine and provides on-the-fly formatting. Chordie does not index songs against artists'/composers' will. To remove this song please click here.

Text color:
Chord color:
Chord grids: 
Font size:    
Page size: 

A5 B5 Bb5 C5 D5 Dm E F5
Rate #1 of 1 versions

Login - add to songbook

SHARE PAGE  




You need to log in to post comments