Guitar Tabs, Chords and Lyrics
Major upgrade!! After one year development the new version of Chordie is now online! Please give feedback.


Roll If Ya Fall  Barefoot Truth

Roll If Ya Fall Tab
Standard Tuning (EADGBE)
(Optional capo on 4th fret ? if you choose to use a capo, the chord names and fret
numbers will change relative to the capo)
This is the first tab I have published, so, try to be understanding. If it's
sloppy or hard to read, let me know.
INTRO
[E] [B] [D#m]  
 
 E--7--7--x----7h9p7-------------7----7--x--7--7--7--7--7--7--7---6--6--x--6--6--6--6--6----|
 B--9--9--x------------9-7-------7----7--x--7--7--7--7--7--7--7---7--7--x--7--7--7--7--7----|
 G--9--9--x-----------------9----7h8--8--x--8--8--8--8--8--8--8---8--8--x--8--8--8--8--8----|
 D--9--9--x----------------------7h9--9--x--9--9--9--9--9--9--9---8--8--x--8--8--8--8--8----|
 A--7--7--x----------------------7h9--9--x--9--9--9--9--9--9--9---6--6--x--6--6--6--6--6----|
 E-------------------------------7----7--x--7--7--7--7--7--7--7-----------------------------|

? E B
 
 E--6--6--x----12--12--11--11h12--7--7--x--7h9p7-----11--7--7----7--x--|
 B--7--7--x-----------------------9--9--x----------9--------7----7--x--|
 G--6--6--x-----------------------9--9--x-------------------7h8--8--x--|
 D--------x-----------------------9--9--x-------------------7h9--9--x--|
 A--------x-----------------------7--7--x-------------------7h9--9--x--|
 E--------x-------------------------------------------------7----7--x--|

B D#m ?
 
 E--7--7--7--7--7--7--7----6--------6-----|
 B--7--7--7--7--7--7--7----7--------7-----|
 G--8--8--8--8--8--8--8----8--------6-----|
 D--9--9--9--9--9--9--9----8--------------|
 A--9--9--9--9--9--9--9----6--------------|
 E--7--7--7--7--7--7--7-------------------|

VERSE
[B] [B]  
 
 E--7--7--x---------------------------------7--7--x------------------------------------|
 B--7--7--x---------------------------------7--7--x------------------------------------|
 G--8--8--x------------------------9-9--9---8--8--x-------------------------9-9--9-----|
 D--9--9--x-----------9h11--9--9-9----9--9--9--9--x------------9h11--9--9-9-----9--9---|
 A--9--9--x------9--11----------------------9--9--x------9-11--------------------------|
 E--7--7--x--9/11---------------------------7--7--x--9/11------------------------------|

PRE-CHORUS
[B]  
 
 E--7--7--x------------------------------------------|
 B--7--7--x------------------------------------------|
 G--8--8--x--------------------------9-9-9-9-9-9-9---|
 D--9--9--x-----------------9h11--9--9-9-9-9-9-9-9---|
 A--9--9--x----------9--11---------------------------|
 E--7--7--x----9/11----------------------------------|

CHORUS
[F] [E] [F] [E] [F] [E] [F] [E]  
 
 E--x---x---x---x--x--x----x---x---x---x--x--x----x---x---x---x--x--x----x---x---x---x------------|
 B--11--11--x---9--9--x----11--11--x---9--9--x----11--11--x---9--9--x----11--11--x---9------------|
 G--11--11--x---9--9--x----11--11--x---9--9--x----11--11--x---9--9--x----11--11--x---9------------|
 D--11--11--x---9--9--x----11--11--x---9--9--x----11--11--x---9--9--x----11--11--x---9------------|
 A--9---9---x---7--7--x----9---9---x---7--7--x----9---9---x---7--7--x----9---9---x---7------------|
 E----------x---------x------------x---------x------------x---------x------------x-------12/7-----|

REPEAT VERSE but at
"Step back for a moment"
[B] [E]  
 
 E--7----x--x--x-------------| then back to normal verse
 B--7----9--9--x-------------|
 G--8----9--9--x--9-9--9-----|
 D--9----9--9--x------9---9--|
 A--9----7--7--x-------------|
 E--7----------x-------------|

BRIDGE
[B] [E] [F]  
 
 E--7--7-------x---x---x---x---x-----|
 B--7--7-------9---11--11--11--11----|
 G--8--8-------9---11--11--11--11----| x 2
 D--9--9-------9---11--11--11--11----|
 A--9--9--6/7--7---9---9---9---9-----|
 E--7--7-(6/7)----(9)-(9)-(9)-(9)----|

BRIDGE (part 2)
[B] [E] [F]  
 
 E--7--7----------x----x---x----x---x----|
 B--7--7----------9----11--11--11--11----|
 G--8--8----------9----11--11--11--11----|
 D--9--9----------9----11--11--11--11----|
 A--9--9--6-6/7---7----9---9---9---9-----|
 E--7--7--------------(9)-(9)-(9)-(9)----|

Repeat the INTRO, but add a couple chords at the end of it.
INTRO/OUTRO
[E] [B] [D#m]  
 
 E--7--7--x----7h9p7--------------7----7--x--7--7--7--7--7--7--7---6--6--x--6--6--6--6--6----|
 B--9--9--x------------9--7-------7----7--x--7--7--7--7--7--7--7---7--7--x--7--7--7--7--7----|
 G--9--9--x-------------------9---7h8--8--x--8--8--8--8--8--8--8---8--8--x--8--8--8--8--8----|
 D--9--9--x-----------------------7h9--9--x--9--9--9--9--9--9--9---8--8--x--8--8--8--8--8----|
 A--7--7--x-----------------------7h9--9--x--9--9--9--9--9--9--9---6--6--x--6--6--6--6--6----|
 E--------------------------------7----7--x--7--7--7--7--7--7--7-----------------------------|

? E B
 
 E--6--6--x----12--12--11--11h12---7--7--x---7h9p7--11--7---7---7---x--|
 B--7--7--x------------------------9--9--x----------9-------7---7---x--|
 G--6--6--x------------------------9--9--x------------------7h8-8---x--|
 D--------x------------------------9--9--x------------------7h9-9---x--|
 A--------x------------------------7--7--x------------------7h9-9---x--|
 E--------x-------------------------------------------------7---7---x--|

B D#m ? E B
 
 E--7--7--7--7--7--7--7----6----6--x---7--|
 B--7--7--7--7--7--7--7----7----7--9---7--|
 G--8--8--8--8--8--8--8----8----6--9---8--|
 D--9--9--9--9--9--9--9----8----x--9---9--|
 A--9--9--9--9--9--9--9----6----x--7---9--|
 E--7--7--7--7--7--7--7---------x------7--|

The End! Congrats.
PS You can also replace the chord I put a ??? above with an F chord, looks like this:
E--x---|
B--11--|
G--11--|
D--11--|
A--9---|
 
 E------|

Email suggestions/comments to tmaxwell18@gmail.com

Important: The song above is NOT stored on the Chordie server. The original song is hosted at www.guitaretab.com. Chordie works as a search engine and provides on-the-fly formatting. Chordie does not index songs against artists'/composers' will. To remove this song please click here.

Text color:
Chord color:
Chord grids: 
Font size:    
Page size: 

B D#m E F
Rate #5 of 5 versions

Login - add to songbook

SHARE PAGE  




You need to log in to post comments