Guitar Tabs, Chords and Lyrics
Server problems seems to be fixed. Chordie has been experiencing problems with songs disappearing. These issues now seems to be fixed, but still verifying the fix. If you find anything strange, please email admin@chordie.com.


O'er Hell and Hide  Baroness

 
 -------------------------------------------------------------------------------

O'ER HELL AND HIDE - Baroness
 
 -------------------------------------------------------------------------------

Tabbed by: itsonlycapital
Email: itsonlycapital@gmail.com
Tuned: down 1 step
(This song uses a good amount of arpeggiation and some of the transition
notes here may not be exact.)
Acoustic guitar
 
 d|-----0-------0-------0-----0-----|-5/7-----7-----7-------7-----7---|
 A|---------0-----0-------0-----0---|-------5-----5-------------5-----|
 F|-4h5---5---5-----4h5-----5-----0-|-5/7-0-----0-----5/7-0---0-----0-|
 C|---------------------------------|---------------------------------|
 G|---------------------------------|---------------------------------|
 D|---------------------------------|---------------------------------|
 d|-----0-------0-------0-----------|-----3---0-3---------5-----5---0-|
 A|---------0-----0-------0-----0---|-3h0---0-----3h0---5-----5-------|
 F|-4h5---5---5-----4h5-------2---0-|-----------------6-----6-----6---|
 C|-------------------------0-------|---------------------------------|
 G|---------------------------------|---------------------------------|
 D|---------------------------------|---------------------------------|
 d|-------------0-------------0-----|-------------0-------------0-----|
 A|---------1-----1-------1-----1---|---------0-----0-------0-----0---|
 F|-----2---------------0---------0-|-----0-------------0-----------0-|
 C|-2h3---3---3-----3p2-----2-------|-2p0---0---0-----0---0---0-------|
 G|---------------------------------|---------------------------------|
 D|---------------------------------|---------------------------------|
 d|---------3-----3-------3-----3---|-------------0-------------0-----|
 A|-----5-------5-------------5-----|-----3---0-----0-----1p0-----0---|
 F|-4h5---5---5-----5p4-----4-----0-|-4\3---3---3-----0h2-----2-----0-|
 C|---------------------5-----------|---------------------------------|
 G|---------------------------------|---------------------------------|
 D|---------------------------------|---------------------------------|
 d|-------------------0-----------0-|---------------1---0-1---------3-|
 A|-------------0h3-----3p0-----0---|---------1---0---------1-----3---|
 F|-------0h2-----------------------|---0h2p0---2-----2-------2/4-----|
 C|-0h2h4-----4-----4-------4/6-----|-0-------------------------------|
 G|---------------------------------|---------------------------------|
 D|---------------------------------|---------------------------------|

(band enters)
 
 d|-------------------------------3-|---------------------------------|
 A|-------------------------3---0---|---------------------------------|
 F|-----------------0h2/4-0---4-----|---------------------------------|
 C|-----------0h2p0-----------------|---------------------------------|
 G|---------5-----------------------|---------------------------------|
 D|-0h3h5/7-------------------------|-0-------------------------------|

___________________________________________________________________________
Guitar 1
| PM__|
 
 d|---------------------------------|---------------------------------|
 A|--0------------------------------|--0------------------------------|
 F|-(0)-----------------------------|-(0)--------11----12--8----------|
 C|--2------------------------------|--2----------x-----x--x----------|
 G|--2------------------------------|--2----------9----10--6----------|
 D|--0--------------------------0-0-|--0------------------------------|

|
Guitar 2
| PM__|
 
 d|---------------------------------|---------------------------------|
 A|--0------------------------------|--0------------------------------|
 F|-(0)-----------------------------|-(0)--------14----15-11----------|
 C|--2------------------------------|--2----------x-----x--x----------|
 G|--2------------------------------|--2---------12----13--9----------|
 D|--0--------------------------0-0-|--0------------------------------|

Guitar 1
| PM__|
 
 d|---------------------------------|---------------------------------|
 A|--0------------------------------|--0------------------------------|
 F|-(0)-----------------------------|-(0)--------11----12--7----------|
 C|--2------------------------------|--2----------x-----x--x----------|
 G|--2------------------------------|--2----------9----10--5----------|
 D|--0--------------------------0-0-|--0------------------------------|

|
Guitar 2
| PM__|
 
 d|---------------------------------|---------------------------------|
 A|--0------------------------------|--0------------------------------|
 F|-(0)-----------------------------|-(0)--------14----15-11----------|
 C|--2------------------------------|--2----------x-----x--x----------|
 G|--2------------------------------|--2---------12----13--9----------|
 D|--0--------------------------0-0-|--0------------------------------|

___________________________________________________________________________
G1 & G2
|
 
 d|-------12----------11-----------7-----------7----|
 A|----12----12----10-----0-----8-----0-----7-----7-|
 F|-12----------11-----------9-----------8----------|
 C|-------------------------------------------------|
 G|-------------------------------------------------|
 D|-------------------------------------------------|

[G1] |
 
 d|--------8-----------7--------------------------|
 A|-----8-----0-----8-----0-----------------------|
 F|--9-----------7----------11-----12--8----------|
 C|--------------------------x------x--x----------|
 G|--------------------------9-----10--6----------|
 D|-----------------------------------------------|

|
[G2] |
 
 d|--------8-----------7--------------------------|
 A|-----8-----0-----8-----0-----------------------|
 F|--9-----------7----------14-----15-11----------|
 C|--------------------------x------x--x----------|
 G|-------------------------12-----13--9----------|
 D|-----------------------------------------------|

G1 & G2
|
 
 d|-------12----------11-----------7-----------7----|
 A|----12----12----10-----0-----8-----0-----7-----7-|
 F|-12----------11-----------9-----------8----------|
 C|-------------------------------------------------|
 G|-------------------------------------------------|
 D|-------------------------------------------------|

[G1] |
 
 d|--------8-----------7--------------------------|
 A|-----8-----0-----8-----0-----------------------|
 F|--9-----------7----------11-----12--7----------|
 C|--------------------------x------x--x----------|
 G|--------------------------9-----10--5----------|
 D|-----------------------------------------------|

|
[G2] |
 
 d|--------8-----------7--------------------------|
 A|-----8-----0-----8-----0-----------------------|
 F|--9-----------7----------14-----15-11----------|
 C|--------------------------x------x--x----------|
 G|-------------------------12-----13--9----------|
 D|-----------------------------------------------|

___________________________________________________________________________
G1 & G2
|
 
 d|-------5-----------7-----------8----------8----|
 A|-------5-----------3-----------8----------8----|
 F|----5-----5-----4-----4--------0----------0----|
 C|-7-----------5--------------7------------------|
 G|-------------------------8-------------7-------|
 D|------------------------------------8----------|

[G1] |
 
 d|-------8----------0----------------------------|
 A|-------8----------0----------------------------|
 F|-------0----------0----14----15-11-------------|
 C|----7-------------------x-----x--x-------------|
 G|-8-------------7-------12----13--9-------------|
 D|------------8----------------------------------|

|
[G1] |
 
 d|-------8----------0----------------------------|
 A|-------8----------0----------------------------|
 F|-------0----------0----11----12--8-------------|
 C|----7-------------------x-----x--x-------------|
 G|-8-------------7--------9----10--6-------------|
 D|------------8----------------------------------|

___________________________________________________________________________
G1 & G2
|
 
 d|-0-------------------------------|
 A|-0-------------------------------|
 F|-0-------------------------------|
 C|-2-------------------------------|
 G|-2-------------------------------|
 D|-0-------------------------------|

G1 & G2
|
 
 d|-------------0-------------0-----|-------------0-------------0-----|
 A|---------0-----0-------0-----0---|---------0-----0-------0-----0---|
 F|-----2---------------2-----------|-----2---------------2-----------|
 C|-2h3---3---3-----2h3-----3-------|-2h3---3---3-----2h3-----3-------|
 G|---------------------------------|---------------------------------|
 D|---------------------------------|---------------------------------|

G1 & G2
|
 
 d|-------------0-------------0-----|-------------0-------------0-----|
 A|---------0-----0-------0-----0---|---------0-----0-------0-----0---|
 F|-----5---------------5-----------|-----5---------------5-----------|
 C|-5h6---6---6-----5h6-----6-------|-5h6---6---6-----5h6-----6-------|
 G|---------------------------------|---------------------------------|
 D|---------------------------------|---------------------------------|

___________________________________________________________________________
G1 & G2
|
 
 d|-------------------10-------------------5-------|
 A|-------------10-------------------5--------5----|
 F|-------10----------------------5--------------5-|
 C|-10h12----12----12----12--5h7--------7----------|
 G|------------------------------------------------|
 D|------------------------------------------------|

G1 & G2
|
 
 d|------------------5-------------------0---------|
 A|------------5-------------------3--------3------|
 F|------5--------------0-------5------------------|
 C|-7h5-----5-----5--------5h3---------------------|
 G|------------------------------------------------|
 D|------------------------------------------------|

___________________________________________________________________________
G1 & G2
|
 
 d|-------------------------------------------------|
 A|-------------------------------------------------|
 F|----------0--0--0-----------0--0--0--------0--0--|
 C|-3--3--3--2--2--2--4--4--4--2--2--2--0--0--2--2--|
 G|-3--3--3--3--3--3--5--5--5--3--3--3--2--2--3--3--|
 D|-1--1--1-----------2--2--2-----------3--3--------|

G1 & G2
|
 
 d|--------------------------------------------------|
 A|--------------------------------------------------|
 F|-----------------------------0--0--0--------0--0--|
 C|--------------------5--5--5--2--2--2--0--0--2--2--|
 G|-/7--7--7--7--7--7--2--2--2--3--3--3--2--2--3--3--|
 D|--4--4--4--5--5--5--3--3--3-----------3--3--------|

___________________________________________________________________________
(Lots of layered guitar here, keep an ear out for the changes)
 
 d|-----------------------------------|------------------------------------|
 A|-----------------------------------|------------------------------------|
 F|-10----9-7-------------------------|------------------------------------|
 C|-----------10-9-7-6---7---9---10---|-9----10-12--10--9h10h9-------------|
 G|-----------------------------------|------------------------------------|
 D|-----------------------------------|------------------------------------|
 d|--------------------------------|------------------------------------|
 A|--------------------------------|------------------------------------|
 F|--------------------------------|------------------------------------|
 C|--------------------------------|------------------------------------|
 G|-8----7-5-----------------------|------------------------------------|
 D|----------8-7-5-4---5---7---8---|-7----8-10--8--7h8h7----------------|
 d|--------------------------------|------------------------------------|
 A|--------------------------------|------------------------------------|
 F|-5----4-------------------------|------------------------------------|
 C|--------7\5-5-3-2---3---5---7---|--------/9--7--5h7h5----------------|
 G|--------------------------------|-5----------------------------------|
 D|--------------------------------|------------------------------------|
 d|---------------------------------|------------------------------------|
 A|-10----8-6-----------------------|------------------------------------|
 F|-----------9-7-5-4---5---7---9---|-7----9-10--9--7h9h7----------------|
 C|---------------------------------|------------------------------------|
 G|---------------------------------|------------------------------------|
 D|---------------------------------|------------------------------------|
 d|-13----12-10-----------------------------|------------------------------------|
 A|-------------13-12-10-9---10---12---13---|-12----13-15--13--12h13-12----------|
 F|-----------------------------------------|------------------------------------|
 C|-----------------------------------------|------------------------------------|
 G|-----------------------------------------|------------------------------------|
 D|-----------------------------------------|------------------------------------|
 d|-13----12-10------------------------------------|------------------------------------|
 A|-------------13-12-10-9---10---12---15b17r15----|-13----15-17--15--12h13-12----------|
 F|------------------------------------------------|------------------------------------|
 C|------------------------------------------------|------------------------------------|
 G|------------------------------------------------|------------------------------------|
 D|------------------------------------------------|------------------------------------|

|
 
 d|-17----15-13------------------------------------|------------------------------------|
 A|-------------17-15-13-12---13---15---18b20r18---|-17----18-20--18--15h17-15----------|
 F|------------------------------------------------|------------------------------------|
 C|------------------------------------------------|------------------------------------|
 G|------------------------------------------------|------------------------------------|
 D|------------------------------------------------|------------------------------------|

|
 
 d|------------------------------------------------|------------------------------------|
 A|-13----12-10------------------------15b17r15----|-13----15-17--15--12h13-12----------|
 F|-------------12----10-9---10---12---------------|------------------------------------|
 C|----------------12------------------------------|------------------------------------|
 G|------------------------------------------------|------------------------------------|
 D|------------------------------------------------|------------------------------------|

| / slide up
| \ slide down
| h hammer-on
| p pull-off
| ~ vibrato
| + harmonic
| x Mute note
===============================================================================

Important: The song above is NOT stored on the Chordie server. The original song is hosted at www.guitaretab.com. Chordie works as a search engine and provides on-the-fly formatting. Chordie does not index songs against artists'/composers' will. To remove this song please click here.

Text color:
Chord color:
Chord grids: 
Font size:    
Page size: 

G2
Rate #1 of 2 versions

Login - add to songbook

SHARE PAGE  




You need to log in to post comments