Guitar Tabs, Chords and Lyrics
Server problems seems to be fixed. Chordie has been experiencing problems with songs disappearing. These issues now seems to be fixed, but still verifying the fix. If you find anything strange, please email admin@chordie.com.


Half a Life   Bayside

 
 -------------------------------------------------------------------------------

 


 Half A Life - Bayside


 

 
 -------------------------------------------------------------------------------

 


 Tabbed by: Garrett Smith


 Email: NNoodleNose@gmail.com


 


 Tuning: Drop D


 


 [intro] 


 


 

 
 e|------------------------------------------------------------------|
 b|------------------------------------------------------------------|
 g|---------------------------------7-7---7-7-7---7-7-7---7-7-7---7--|
 d|-8-8---8-8-8---8-8-8---8-8-8---8-7-7---7-7-7---7-7-7---7-7-7---7--|
 a|-8-8---8-8-8---8-8-8---8-8-8---8-5-5---5-5-5---5-5-5---5-5-5---5--|
 D|-8-8---8-8-8---8-8-8---8-8-8---8----------------------------------|[x2]

 


 


 [verse] 


 


 PM.............................................................|


 

 
 e|---------------------------------------------------------------|
 b|---------------------------------------------------------------|
 g|---------------------------------------------------------------|
 d|-8-8---8-8-8---8-8-8---8-8-8---8-5-5---5-5-5---5-5-5---5-5-5---|
 a|-8-8---8-8-8---8-8-8---8-8-8---8-5-5---5-5-5---5-5-5---5-5-5---|
 D|-8-8---8-8-8---8-8-8---8-8-8---8-5-5---5-5-5---5-5-5---5-5-5---|

 


 PM............................................|


 

 
 e|-----------------------------------------------|
 b|-----------------------------------------------|
 g|-----------------------------------------------|
 d|-8-8---8-8-8---8-7-7---7-7-7---7-3-3---3-3-3---|
 a|-8-8---8-8-8---8-7-7---7-7-7---7-3-3---3-3-3---|
 D|-8-8---8-8-8---8-7-7---7-7-7---7-3-3---3-3-3---| [x2]

 


 


 [re-intro] 


 


 

 
 e|------------------------------------------------------------------|
 b|------------------------------------------------------------------|
 g|---------------------------------7-7---7-7-7---7-7-7---7-7-7---7--|
 d|-8-8---8-8-8---8-8-8---8-8-8---8-7-7---7-7-7---7-7-7---7-7-7---7--|
 a|-8-8---8-8-8---8-8-8---8-8-8---8-5-5---5-5-5---5-5-5---5-5-5---5--|
 D|-8-8---8-8-8---8-8-8---8-8-8---8----------------------------------|[x2]

 


 


 [verse 1] 


 


 PM............................................................|


 

 
 e|---------------------------------------------------------------|
 b|---------------------------------------------------------------|
 g|---------------------------------------------------------------|
 d|-8-8---8-8-8---8-8-8---8-8-8---8-5-5---5-5-5---5-5-5---5-5-5---|
 a|-8-8---8-8-8---8-8-8---8-8-8---8-5-5---5-5-5---5-5-5---5-5-5---|
 D|-8-8---8-8-8---8-8-8---8-8-8---8-5-5---5-5-5---5-5-5---5-5-5---|

 


 PM............................................|


 

 
 e|-----------------------------------------------|
 b|-----------------------------------------------|
 g|-----------------------------------------------|
 d|-8-8---8-8-8---8-7-7---7-7-7---7-3-3---3-3-3---|
 a|-8-8---8-8-8---8-7-7---7-7-7---7-3-3---3-3-3---|
 D|-8-8---8-8-8---8-7-7---7-7-7---7-3-3---3-3-3---|

 


 


 [pre-cborus] 


 


 

 
 e|-----------------------------------------------------------|
 b|-----------------------------------------------------------|
 g|-----------------------------------------------------------|
 d|-5-5---5-5--5--5-3-3---3-3--3--3-5-5---5-5--5--5---3---4---|
 a|-5-5---5-5--5--5-3-3---3-3--3--3-5-5---5-5--5--5---3---4---|
 D|-5-5---5-5--5--5-3-3---3-3--3--3-5-5---5-5--5--5---3---4---|

 


 


 [cborus] 


 


 guitar 1


 

 
 e|-------------------------------------------------------------------------|
 b|-------------------------------------------------------------------------|
 g|-------------------------------------------------------------------------|
 d|-3-5-5-5---5-5-5---5-3-3-3---3-3-3---3-1-1-1---1-1-1---1-3-3-3---3-3-3---|
 a|-3-5-5-5---5-5-5---5-3-3-3---3-3-3---3-1-1-1---1-1-1---1-3-3-3---3-3-3---|
 D|-3-5-5-5---5-5-5---5-3-3-3---3-3-3---3-1-1-1---1-1-1---1-3-3-3---3-3-3---|[x2]

 


 


 guitar 2 (on second cycle)


 

 
 e|------------------------------------------------------|
 b|-----------------------------6------------------------|
 g|-3-5--5b-5-3h5---3-5--5b-5-3---5-3-5b-5-3-------------|
 d|------------------------------------------5-3---------|
 a|----------------------------------------------5-3-1---|
 D|------------------------------------------------------|

 


 


 [re-intro] 


 


 

 
 e|--------------------------------------------------------------------|
 b|--------------------------------------------------------------------|
 g|----------------------------------/7-7---7-7-7---7-7-7---7-7-7---7--|
 d|-8-8---8-8-8---8-8-8---8-8-8---8--/7-7---7-7-7---7-7-7---7-7-7---7--|
 a|-8-8---8-8-8---8-8-8---8-8-8---8--/5-5---5-5-5---5-5-5---5-5-5---5--|
 D|-8-8---8-8-8---8-8-8---8-8-8---8------------------------------------|

 


 


 [verse 2] 


 


 PM............................................................|


 

 
 e|---------------------------------------------------------------|
 b|---------------------------------------------------------------|
 g|---------------------------------------------------------------|
 d|-8-8---8-8-8---8-8-8---8-8-8---8-5-5---5-5-5---5-5-5---5-5-5---|
 a|-8-8---8-8-8---8-8-8---8-8-8---8-5-5---5-5-5---5-5-5---5-5-5---|
 D|-8-8---8-8-8---8-8-8---8-8-8---8-5-5---5-5-5---5-5-5---5-5-5---|

 


 PM............................................|


 

 
 e|-----------------------------------------------|
 b|-----------------------------------------------|
 g|-----------------------------------------------|
 d|-8-8---8-8-8---8-7-7---7-7-7---7-3-3---3-3-3---|
 a|-8-8---8-8-8---8-7-7---7-7-7---7-3-3---3-3-3---|
 D|-8-8---8-8-8---8-7-7---7-7-7---7-3-3---3-3-3---| [x2]

 


 


 [pre-cborus] 


 


 

 
 e|-----------------------------------------------------------|
 b|-----------------------------------------------------------|
 g|-----------------------------------------------------------|
 d|-5-5---5-5--5--5-3-3---3-3--3--3-5-5---5-5--5--5---3---4---|
 a|-5-5---5-5--5--5-3-3---3-3--3--3-5-5---5-5--5--5---3---4---|
 D|-5-5---5-5--5--5-3-3---3-3--3--3-5-5---5-5--5--5---3---4---|

 


 


 [cborus] 


 


 guitar 1


 

 
 e|-------------------------------------------------------------------------|
 b|-------------------------------------------------------------------------|
 g|-------------------------------------------------------------------------|
 d|-3-5-5-5---5-5-5---5-3-3-3---3-3-3---3-1-1-1---1-1-1---1-3-3-3---3-3-3---|
 a|-3-5-5-5---5-5-5---5-3-3-3---3-3-3---3-1-1-1---1-1-1---1-3-3-3---3-3-3---|
 D|-3-5-5-5---5-5-5---5-3-3-3---3-3-3---3-1-1-1---1-1-1---1-3-3-3---3-3-3---|[x2]

 


 


 guitar 2 (on second cycle)


 

 
 e|------------------------------------------------------|
 b|-----------------------------6------------------------|
 g|-3-5--5b-5-3h5---3-5--5b-5-3---5-3-5b-5-3-------------|
 d|------------------------------------------5-3---------|
 a|----------------------------------------------5-3-1---|
 D|------------------------------------------------------|

 


 


 [interlude] 


 


 PM|...............................................................|


 

 
 e|------------------------------------------------------------------|
 b|------------------------------------------------------------------|
 g|---------------------------------3-3-3-3--------------------------|
 d|-5-5-5-5-5-5-5-5-3-3-3-3-3-3-3-3-3-3-3-3-3-3-3-3-5-5-5-5-5-5-5-5--|
 a|-5-5-5-5-5-5-5-5-3-3-3-3-3-3-3-3-1-1-1-1-3-3-3-3-5-5-5-5-5-5-5-5--|
 D|-5-5-5-5-5-5-5-5-3-3-3-3-3-3-3-3---------3-3-3-3-5-5-5-5-5-5-5-5--|

 


 


 PM...........................|


 

 
 e|-----------------------------|
 b|-----------------------------|
 g|-----------------------------|
 d|-1-1-1-1-1-1-1-1-3-3-3-3--3--|
 a|-1-1-1-1-1-1-1-1-3-3-3-3--3--|
 D|-1-1-1-1-1-1-1-1-3-3-3-3--3--|

 


 


 [solo] 


 


 guitar 1


 


 

 
 e|----------------------------------|
 b|----------------------------------|
 g|-------------------------8-7-5-3--|
 d|-8--1-3-5-5--7-8-5-5-5-5-8-7-5-3--|
 a|-8--1-3-5-5--7-8-5-5-5-5-6-5-3-1--|
 D|-8--1-3-5-5--7-8-5-5-5-5----------| [x4]

 


 


 guitar 2


 


 

 
 e|-------------3----------------------|-----------------------|
 b|---------------6-3-6-3---3----------|-----------------------|
 g|-----3---3-5-----------5---5-3-5b-3-|-/6-7-6-5-6-5h6p5\3-3--|
 d|-3/5---5----------------------------|-----------------------|
 a|------------------------------------|-----------------------|
 D|------------------------------------|-----------------------|
 e|-------------------------------------|------------------|
 b|-------------------------------------|------------------|
 g|-------------------------------------|-/7-8p7-7-8-8h10--|
 d|-------6-8-5h6p5---8---5-7-8-7-5-----|------------------|
 a|-6-7-8-----------8---8-----------8-5-|------------------|
 D|-------------------------------------|------------------|
 e|----------------------10-11-13-13br-13-|
 b|------11-13b-----11-13-----------------|
 g|-10-12------10-12----------------------|
 d|---------------------------------------|
 a|---------------------------------------|
 D|---------------------------------------|
 e|-13-11-10-11-10--10-----------------------------------------------|
 b|---------------13--13-11-10-11-10--10-----------------------------|
 g|---------------------------------12--12-10-12-10--10--------------|
 d|------------------------------------------------13--13-12-10\8-8--|
 a|------------------------------------------------------------------|
 D|------------------------------------------------------------------|
 e|---------------------------------------------------------------------|
 b|---------------------------------------------------------------------|
 g|-3-3/5-7-7\5-5/8-8\7-7/10-10\8-8/12-12\10-10/14-14\12-12/15-15\14-14-|
 d|-X-X/X-X-X\X-X/X-X\X-X/-X--X\X-X/-X--X\-X--X/-X--X\-X--X/-X--X\-X--X-|
 a|-1-1/3-5-5\3-3/6-6\5-5/-8--8\6-6/10-10\-8--8/12-12\10-10/13-13\12-12-|
 D|---------------------------------------------------------------------|
 e|----------------|
 b|----------------|

 


 g|-14/15-15/17\15-|


 

 
 d|--X/-X--X/-X\-X-|

 


 a|-12/13-13/15\13-|


 

 
 D|----------------|

 


 


 [verse 3] 


 


 

 
 e|----------------------------------|
 b|----------------------------------|
 g|-------------------------8-7-5-3--|
 d|-8--1-3-5-5--7-8-5-5-5-5-8-7-5-3--|
 a|-8--1-3-5-5--7-8-5-5-5-5-6-5-3-1--|
 D|-8--1-3-5-5--7-8-5-5-5-5----------| [x4]

 


 


 [cborus] 


 


 guitar 1


 

 
 e|-----------------------------------------------------------------| |---|
 b|-----------------------------------------------------------------| |---|
 g|-----------------------------------------------------------------| |---|
 d|-5-5-5-5-5-5-5-5-3-3-3-3-3-3-3-3-1-1-1-1-1-1-1-1-3-3-3-3-3-3-3-3-| |-5-|
 a|-5-5-5-5-5-5-5-5-3-3-3-3-3-3-3-3-1-1-1-1-1-1-1-1-3-3-3-3-3-3-3-3-| |-5-|
 D|-5-5-5-5-5-5-5-5-3-3-3-3-3-3-3-3-1-1-1-1-1-1-1-1-3-3-3-3-3-3-3-3-|[x2]|-5-|

 


 


 guitar 2 (on second cycle)


 

 
 e|--------------------------------------------------------|
 b|-----------------------------6--------------------------|
 g|-3-5--5b-5-3h5---3-5--5b-5-3---5-3-5b-5-3---------------|
 d|------------------------------------------5-3-----------|
 a|----------------------------------------------5-3-1-1b--|
 D|--------------------------------------------------------|


Important: The song above is NOT stored on the Chordie server. The original song is hosted at www.guitaretab.com. Chordie works as a search engine and provides on-the-fly formatting. Chordie does not index songs against artists'/composers' will. To remove this song please click here.

This song is displayed as text-only. Transposing and tuning is only available for chordpro-songs.
Rate #1 of 2 versions

Jango Player

Login - add to songbook

SHARE PAGE  




You need to log in to post comments