Guitar Tabs, Chords and Lyrics
Server problems seems to be fixed. Chordie has been experiencing problems with songs disappearing. These issues now seems to be fixed, but still verifying the fix. If you find anything strange, please email admin@chordie.com.


Alcohol and Altar Boys  Bayside

ALCOHOL AND ALTAR BOYS - Bayside
Tuning: Drop D
GUITAR 1:
INTRO
[F#5] [F#5] [A5] [D5] [F#5] [A5] [D5]  
 
 e|---|----------------------------------------------------|
 B|---|-------------------------------------------------3--|
 G|---|-------------------------------------------------2--|
 D|---|-----------------------x3------------------------0--|
 A|-4-|-4-4--4/-7-7--7\-0-0--------4-4--4/-7-7--7\-0-0--0--|
 D|-4-|-4-4--4/-7-7--7\-0-0--------4-4--4/-7-7--7\-0-0--0--|

VERSE
[F#5] [A5] [D5] [E5] [F#5] [A5] [D5]  
 
 e|-----------------------------------------------------------------------|
 B|-----------------------------------------------------------------------|
 G|-----------------------------------------------------------------------|
 D|-----------------------------------------------------------------------|
 A|-4-444444--7-777777--0-000000--2-222222--4-444444--7-777777--0-000000--|
 D|-4-444444--7-777777--0-000000--2-222222--4-444444--7-777777--0-000000--|

...... ...... ...... ...... ...... ...... ......
[D5] [E5] [F#5] [A5] [D5] [E5] [F#5] [A5] [D5] [E5]  
 
 e|---------------------------------------------------------------------------|
 B|---------------------------------------------------------------------------|
 G|---------------------------------------------------------------------------|
 D|---------------------------------------------------------------------------|
 A|-222-222--2-4444--4-7777--7-0000--0-2222--2-4444--4-7777--7-0000--0-2222-2-|
 D|-222-222--2-4444--4-7777--7-0000--0-2222--2-4444--4-7777--7-0000--0-2222-2-|

.. .. .. .. .. .. .. ..
BRIDGE REFRAIN
[D5] [E5] [F#5] [A5] [G#5] [A5] [D5] [F#5] [G#5] [A5] [B5] [D5]  
 
 e|-------------------|------------------------------------------------------|
 B|-------------------|-----------------------33-33--------------------------|
 G|-------------------|-----------------------22-22--------------------------|
 D|-------------------|-----------------------00-00--------------------------|
 A|-00000000-22222222-|-4-4--7\-6--6/-7--7-7--00-00---4-4--(6)/-7-7--9-9--0--|
 D|-00000000-22222222-|-4-4--7\-6--6/-7--7-7--00-00---4-4--(6)/-7-7--9-9--0--|

........ ........
[F#5] [A5] [G#5] [A5] [D5] [F#5] [G#5] [A5] [B5] [D5]  
 
 e|------------------------------------------------------|
 B|-----------------------33-33--------------------------|
 G|-----------------------22-22--------------------------|
 D|-----------------------00-00--------------------------|
 A|-4-4--7\-6--6/-7--7-7--00-00---4-4--(6)/-7-7--9-9--0--|
 D|-4-4--7\-6--6/-7--7-7--00-00---4-4--(6)/-7-7--9-9--0--|

INTRO
[F#5] [A5] [D5] [F#5] [A5] [D5]  
 
 e|------------------------------------------------|
 B|--------------------------------------------3---|
 G|--------------------------------------------2---|
 D|--------------------------------------------0---|
 A|-4-4--4/-7-7--7\-0-0---4-4--4/-7-7--7\-0-0--0---|
 D|-4-4--4/-7-7--7\-0-0---4-4--4/-7-7--7\-0-0--0---|

VERSE
[F#5] [A5] [D5] [E5] [F#5] [A5] [D5]  
 
 e|-----------------------------------------------------------------------|
 B|-----------------------------------------------------------------------|
 G|-----------------------------------------------------------------------|
 D|-----------------------------------------------------------------------|
 A|-4-444444--7-777777--0-000000--2-222222--4-444444--7-777777--0-000000--|
 D|-4-444444--7-777777--0-000000--2-222222--4-444444--7-777777--0-000000--|

...... ...... ...... ...... ...... ...... ......
[E5] [F#5] [A5] [D5] [E5] [F#5] [A5] [D5] [E5]  
 
 e|---------------------------------------------------------------------------|
 B|---------------------------------------------------------------------------|
 G|---------------------------------------------------------------------------|
 D|---------------------------------------------------------------------------|
 A|-222-222--2-4444--4-7777--7-0000--0-2222--2-4444--4-7777--7-0000--0-2222-2-|
 D|-222-222--2-4444--4-7777--7-0000--0-2222--2-4444--4-7777--7-0000--0-2222-2-|

.. .. .. .. .. .. .. ..
REFRAIN
[F#5] [A5] [G#5] [A5] [D5] [F#5] [G#5] [A5] [B5] [D5]  
 
 e|------------------------------------------------------|
 B|-----------------------33-33--------------------------|
 G|-----------------------22-22--------------------------|
 D|-----------------------00-00--------------------------|
 A|-4-4--7\-6--6/-7--7-7--00-00---4-4--(6)/-7-7--9-9--0--|
 D|-4-4--7\-6--6/-7--7-7--00-00---4-4--(6)/-7-7--9-9--0--|

[F#5] [A5] [G#5] [A5] [D5] [F#5] [G#5] [A5] [B5] [D5]  
 
 e|------------------------------------------------------|
 B|-----------------------33-33--------------------------|
 G|-----------------------22-22--------------------------|
 D|-----------------------00-00--------------------------|
 A|-4-4--7\-6--6/-7--7-7--00-00---4-4--(6)/-7-7--9-9--0--|
 D|-4-4--7\-6--6/-7--7-7--00-00---4-4--(6)/-7-7--9-9--0--|

INTERLUDE
 
 e|---------------------------------------------------------------------------|
 B|---------------------------------------------------------------------------|
 G|---------------------------------------------------------------------------|
 D|---------7-7-7-0-0-0-----(6)-6-6---------------7-7-7-0-0-0-----(6)-6-6-----|
 A|-4-4-2-4-5-5-4-0-2-2-0-2/(4)-4-4-4-4---4-4-2-4-5-5-4-0-2-2-0-2/(4)-4-4-4-4-|
 D|-4-4-2-4-------------------------7-6---4-4-2-4-------------------------7-6-|

. . . . . . . . . . . . . .
 
 e|---------------------------------------------------------------------------|
 B|---------------------------------------------------------------------------|
 G|---------------------------------------------------------------------------|
 D|---------7-7-7-0-0-0-----(6)-6-6---------------7-7-7-0-0-0-----(6)-6-6-----|
 A|-4-4-2-4-5-5-4-0-2-2-0-2/(4)-4-4-4-4---4-4-2-4-5-5-4-0-2-2-0-2/(4)-4-4-4-4-|
 D|-4-4-2-4-------------------------7-6---4-4-2-4-------------------------7-6-|
 e|---------------------------|
 B|---------------------------|
 G|---------------------------|
 D|----------6-----------4--6-|
 A|-0--4--7--4--0--2-/4--2--4-|
 D|-0--4--7-----0--2-/4-------|

REFRAIN
[F#5] [A5] [G#5] [A5] [D5] [F#5] [G#5] [A5] [B5] [D5]  
 
 e|------------------------------------------------------|
 B|-----------------------33-33--------------------------|
 G|-----------------------22-22--------------------------|
 D|-----------------------00-00--------------------------|
 A|-4-4--7\-6--6/-7--7-7--00-00---4-4--(6)/-7-7--9-9--0--|
 D|-4-4--7\-6--6/-7--7-7--00-00---4-4--(6)/-7-7--9-9--0--|

OUTRO
[F#5] [A5] [G#5] [A5] [D5] [F#5] [G#5] [A5] [B5] [D5]  
 
 e|-----------------------------------------------------|---------|
 B|-----------------------33-33-------------------------|---------|
 G|-----------------------22-22-------------------------|---------|
 D|-----------------------00-00-------------------------|---------|
 A|-4-4--7\-6--6/-7--7-7--00-00---4-4--(6)/-7-7--9-9--0-|-4-4-2-4-|
 D|-4-4--7\-6--6/-7--7-7--00-00---4-4--(6)/-7-7--9-9--0-|-4-4-2-4-|

| / slide up
| \ slide down
| h hammer-on
| p pull-off
| . Palm Mute
ALCOHOL AND ALTAR BOYS - Bayside
Tuning: Drop D
GUITAR 2:
INTRO
[F#5] [F#5] [A5] [D5] [F#5] [A5] [D5]  
 
 e|---|---------------------------------------------|
 B|---|---------------------------------------------|
 G|---|---------------------------------------------|
 D|---|---------------------------------------------|
 A|-4-|-4-4--4/-7-7--7\-0-0---4-4--4/-7-7--7\-0-0---|
 D|-4-|-4-4--4/-7-7--7\-0-0---4-4--4/-7-7--7\-0-0---|
 e|-----------------------------------------------------------------------|
 B|-----------------------------------------------------------------------|
 G|-/(6)6-6/(9)9-9\(7)7---6-7-4-6----------/(6)6-6/(9)9-9\(7)7-\(6)6------|
 D|-------------------------------7-6-7-4-----------------------------7---|
 A|-/(4)4-4/(7)7-7\(5)5--------------------/(4)4-4/(7)7-7\(5)5-\(4)4------|
 D--------------------------------------------------------------------7---|

VERSE
[F#5] [A5] [D5] [E5] [F#5] [A5] [D5]  
 
 e|-----------------------------------------------------------------------|
 B|-----------------------------------------------------------------------|
 G|-----------------------------------------------------------------------|
 D|-----------------------------------------------------------------------|
 A|-4-444444--7-777777--0-000000--2-222222--4-444444--7-777777--0-000000--|
 D|-4-444444--7-777777--0-000000--2-222222--4-444444--7-777777--0-000000--|

...... ...... ...... ...... ...... ...... ......
[D5] [E5] [F#5] [A5] [D5] [E5] [F#5] [A5] [D5] [E5]  
 
 e|---------------------------------------------------------------------------|
 B|---------------------------------------------------------------------------|
 G|---------------------------------------------------------------------------|
 D|---------------------------------------------------------------------------|
 A|-222-222--2-4444--4-7777--7-0000--0-2222--2-4444--4-7777--7-0000--0-2222-2-|
 D|-222-222--2-4444--4-7777--7-0000--0-2222--2-4444--4-7777--7-0000--0-2222-2-|

.. .. .. .. .. .. .. ..
BRIDGE REFRAIN
[D5] [E5] [F#5] [A5] [G#5] [A5] [D5]  
 
 e|-------------------|-------------------------------------------------------|
 B|-------------------|-----------------------33-33---------------------------|
 G|-------------------|-----------------------22-22-------6h9p6-----99--77----|
 D|-------------------|-----------------------00-00---777-------7-99--99--77--|
 A|-00000000-22222222-|-4-4--7\-6--6/-7--7-7--00-00---------------------------|
 D|-00000000-22222222-|-4-4--7\-6--6/-7--7-7--00-00---------------------------|

........ ........ ... . ..........
[F#5] [A5] [G#5] [A5] [D5]  
 
 e|---------------------------------------------------------------------------|
 B|-------------------------------------------------33-33---------------------|
 G|-4h5p4---6h7p6h7p6-------------------------------22-22-------6h9p6-----99--|
 D|-------7-----------976---------------------------00-00---777-------7-99--99|
 A|-----------------------9-(4)-4--7\-6--6/-7--7-7--00-00---------------------|
 D|-------------------------(4)-4--7\-6--6/-7--7-7--00-00---------------------|

. ... . ......
 
 e|-------------------------------|
 B|-------------------------------|
 G|-77---4h5p4---6h7p6h7p6h7p6h7--|
 D|---77-------7------------------|
 A|-------------------------------|
 D|-------------------------------|

.... .
INTRO
 
 e|-----------------------------------------------------------------------|
 B|-----------------------------------------------------------------------|
 G|-/(6)6-6/(9)9-9\(7)7---6-7-4-6----------/(6)6-6/(9)9-9\(7)7-\(6)6------|
 D|-------------------------------7-6-7-4-----------------------------7---|
 A|-/(4)4-4/(7)7-7\(5)5--------------------/(4)4-4/(7)7-7\(5)5-\(4)4------|
 D--------------------------------------------------------------------7---|

VERSE
[F#5] [A5] [D5] [E5] [F#5] [A5] [D5]  
 
 e|-----------------------------------------------------------------------|
 B|-----------------------------------------------------------------------|
 G|-----------------------------------------------------------------------|
 D|-----------------------------------------------------------------------|
 A|-4-444444--7-777777--0-000000--2-222222--4-444444--7-777777--0-000000--|
 D|-4-444444--7-777777--0-000000--2-222222--4-444444--7-777777--0-000000--|

...... ...... ...... ...... ...... ...... ......
[D5] [E5] [F#5] [A5] [D5] [E5] [F#5] [A5] [D5] [E5]  
 
 e|---------------------------------------------------------------------------|
 B|---------------------------------------------------------------------------|
 G|---------------------------------------------------------------------------|
 D|---------------------------------------------------------------------------|
 A|-222-222--2-4444--4-7777--7-0000--0-2222--2-4444--4-7777--7-0000--0-2222-2-|
 D|-222-222--2-4444--4-7777--7-0000--0-2222--2-4444--4-7777--7-0000--0-2222-2-|

.. .. .. .. .. .. .. ..
REFRAIN
[F#5] [A5] [G#5] [A5] [D5]  
 
 e|-------------------------------------------------------|
 B|-----------------------33-33---------------------------|
 G|-----------------------22-22-------6h9p6-----99--77----|
 D|-----------------------00-00---777-------7-99--99--77--|
 A|-4-4--7\-6--6/-7--7-7--00-00---------------------------|
 D|-4-4--7\-6--6/-7--7-7--00-00---------------------------|

... . ..........
[F#5] [A5] [G#5] [A5] [D5]  
 
 e|---------------------------------------------------------------------------|
 B|-------------------------------------------------33-33---------------------|
 G|-4h5p4---6h7p6h7p6-------------------------------22-22-------6h9p6-----99--|
 D|-------7-----------976---------------------------00-00---777-------7-99--99|
 A|-----------------------9-(4)-4--7\-6--6/-7--7-7--00-00---------------------|
 D|-------------------------(4)-4--7\-6--6/-7--7-7--00-00---------------------|

. ... . ......
 
 e|-------------------------------|
 B|-------------------------------|
 G|-77---4h5p4---6h7p6h7p6h7p6h7--|
 D|---77-------7------------------|
 A|-------------------------------|
 D|-------------------------------|

.... .
INTERLUDE
 
 e|---------------------------------------------------------------------------|
 B|---------------------------------------------------------------------------|
 G|---------------------------------------------------------------------------|
 D|---------7-7-7-0-0-0-----(6)-6-6---------------7-7-7-0-0-0-----(6)-6-6-----|
 A|-4-4-2-4-5-5-4-0-2-2-0-2/(4)-4-4-4-4---4-4-2-4-5-5-4-0-2-2-0-2/(4)-4-4-4-4-|
 D|-4-4-2-4-------------------------7-6---4-4-2-4-------------------------7-6-|

. . . . . . . . . . . . . .
 
 e|---------------------------------------------------------------------------|
 B|---------------------------------------------------------------------------|
 G|---------------------------------------------------------------------------|
 D|---------7-7-7-0-0-0-----(6)-6-6---------------7-7-7-0-0-0-----(6)-6-6-----|
 A|-4-4-2-4-5-5-4-0-2-2-0-2/(4)-4-4-4-4---4-4-2-4-5-5-4-0-2-2-0-2/(4)-4-4-4-4-|
 D|-4-4-2-4-------------------------7-6---4-4-2-4-------------------------7-6-|
 e|---------------------------|
 B|---------------------------|
 G|---------------------------|
 D|-7--6--9--6--7--9--11-4--6-|
 A|-5--4--7--4--5--7--9--2--4-|
 D|---------------------------|

REFRAIN
[F#5] [A5] [G#5] [A5] [D5]  
 
 e|-------------------------------------------------------|
 B|-----------------------33-33---------------------------|
 G|-----------------------22-22-------6h9p6-----99--77----|
 D|-----------------------00-00---777-------7-99--99--77--|
 A|-4-4--7\-6--6/-7--7-7--00-00---------------------------|
 D|-4-4--7\-6--6/-7--7-7--00-00---------------------------|

... . ..........
[F#5] [A5] [G#5] [A5] [D5]  
 
 e|---------------------------------------------------------------------------|
 B|-------------------------------------------------33-33---------------------|
 G|-4h5p4---6h7p6h7p6-------------------------------22-22-------6h9p6-----99--|
 D|-------7-----------976---------------------------00-00---777-------7-99--99|
 A|-----------------------9-(4)-4--7\-6--6/-7--7-7--00-00---------------------|
 D|-------------------------(4)-4--7\-6--6/-7--7-7--00-00---------------------|

. ... . ......
OUTRO
 
 e|-------------------------------|---------|
 B|-------------------------------|---------|
 G|-77---4h5p4---6h7p6h7p6h7p6h7--|---------|
 D|---77-------7------------------|---------|
 A|-------------------------------|-4-4-2-4-|
 D|-------------------------------|-4-4-2-4-|

.... .
| / slide up
| \ slide down
| h hammer-on
| p pull-off
| . Palm Mute

Important: The song above is NOT stored on the Chordie server. The original song is hosted at www.guitaretab.com. Chordie works as a search engine and provides on-the-fly formatting. Chordie does not index songs against artists'/composers' will. To remove this song please click here.

Text color:
Chord color:
Chord grids: 
Font size:    
Page size: 

A5 B5 D5 E5 F#5 G#5
Rate #2 of 3 versions

Login - add to songbook

SHARE PAGE  



You need to log in to post comments