Guitar Tabs, Chords and Lyrics
Server problems seems to be fixed. Chordie has been experiencing problems with songs disappearing. These issues now seems to be fixed, but still verifying the fix. If you find anything strange, please email admin@chordie.com.


Forever  The Beach Boys

This is the John Stamos version from the television show "Full House." It's originally
piano, but I transmitted the chords to guitar. Enjoy!
Intro:
[D] [A] [F#m] [Bm] [G] [A]  
If [D]every word I [F#m]said [Bm]could make you laugh,
[Bm]I?d talk [G]forever, [G/F#]mmm...[Em7]
I?d [D] ask the sky just[F#m] what we [Bm]had
[Bm]Mmm, it showed [G]forever[G/F#] [Em7]
If the [D]song I sing to [F#m]you could [Bm]fill your heart with joy,
[Bm]I?d sing [G]forever
[G]Forever, fo[G/Dm]rever
[Am]I?ve been so h[A7]appy loving [F#m]you
(H[D]ey, hey [F#m]let me [Bm]sing forever
[F#m]I wanna be [G]loved forever) x2
**Repeat verse 1 and chorus**
Let the [D]love I have for [F#m]you
[Bm]Live in your heart and be [G]forever.[G/F#]..[Em7]
PIANO CHORDS (ASCENDING):
D = A, D, F#
F#m = A, C#, F#
Bm = B, D, F#
G = G, B, D
A = E, A, C#
Am = E, A, C
E = G#, E, B
[D] [G] [Am]  
 
 e:---2---- e:---3---- e:---0----|
 B:---3---- B:---3---- B:---1----|
 G:---2---- G:---0---- G:---2----|
 D:---0---- D:---0---- D:---2----|
 A:---x---- A:---2---- A:---0----|
 E:---x---- E:---3---- E:---x----|

[F#m] [A] [E]  
 
 e:---2---- e:---0---- e:---0----|
 B:---2---- B:---2---- B:---0----|
 G:---2---- G:---2---- G:---1----|
 D:---4---- D:---2---- D:---2----|
 A:---4---- A:---0---- A:---2----|
 E:---2---- E:---x---- E:---0----|

[Bm] [G/Dm]  
 
 e:---2---- e:---1----|
 B:---2---- B:---3----|
 G:---4---- G:---2----|
 D:---4---- D:---x----|
 A:---2---- A:---x----|
 E:---x---- G:---3----|


Important: The song above is NOT stored on the Chordie server. The original song is hosted at www.guitaretab.com. Chordie works as a search engine and provides on-the-fly formatting. Chordie does not index songs against artists'/composers' will. To remove this song please click here.

Text color:
Chord color:
Chord grids: 
Font size:    
Page size: 

A A7 Am Bm D E Em7 F#m G G/F#
Rate #1 of 14 versions

Jango Player

Login - add to songbook

SHARE PAGE  




You need to log in to post comments