Guitar Tabs, Chords and Lyrics
Major upgrade!! After one year development the new version of Chordie is now online! Please give feedback.


I Saw Her Standing There  The Beatles

?I Saw Her Standing There? by The Beatles from ?Please Please Me?
Verse 1
[E7] [A7] [E7] 
Well, she was just seventeen, You know what I mean,
[B7] [E7] [A7] 
And the way she looked was way beyond compare, So how could I dance with another,
[C] [E7] [B7] [E7]  
Oh when I saw her standing there
Verse 2
[E7] [A7] [E7] 
Well she looked at me, And I, I could see,
[B7] [E7] [A7] 
That before too long I'd fall in love with her, She wouldn't dance with another,
[C] [E7] [B7] [E7]  
Oh when I saw her standing there.
Bridge
[A7]  
Well my heart went boom when I crossed that room,
[B7] [A7]  
And I held her hand in mine.
Verse 3
[E7] [A7] [E7] 
Oh we danced through the night, And we held each other tight,
[B7] [E7] [A7] 
And before too long I fell in love with her, Now I'll never dance with another,
[C] [E7] [B7] [E7]  
Oh when I saw her standing there.
solo
[E7]  
 
 e|---------------------------------------------------------------|
 B|-----------------------------------3-------------------3-------|
 G|-2b-2-0h2p0-------------0-2---2\4---2-0---------0-2\4---4/2-0--|
 D|-------------2-2-0h2-0h2-----------------2---0h2---------------|
 A|-------------------------------------------2-------------------|
 E|---------------------------------------------------------------|

[B7] [E7]  
 
 e|---------------------------------------------------------------|
 B|------------------------------------------8-10b12-10b12-10-8---|
 G|--------4s2-0--------------2--------0-7-9--------------------9-|
 D|------------------0--2-2s4---4-0-------------------------------|
 A|-------------2--2----------------2-----------------------------|
 E|---------------------------------------------------------------|

[A7] [E7] [B7] [E7] 
 
 e|-10----10-------10---------------10----------------------------|
 B|----10----10h12----10-10h12---12----10---------3---------------|
 G|---------------------------------------12--2\4---4/2-0---------|
 D|-------------------------------------------------------0h2-0h2-|
 A|---------------------------------------------------------------|
 E|---------------------------------------------------------------|

[B7]  
 
 e|-------------------|
 B|-------------------|
 G|-2-0---------0---0-|
 D|---------0h2---2---|
 A|-----0h2-----------|
 E|-------------------|

Bridge
[A7]  
Well my heart went boom when I crossed that room,
[B7] [A7]  
And I held her hand in mine.
Verse 4
[E7] [A7] [E7] 
Oh we danced through the night, And we held each other tight,
[B7] [E7] [A7] 
And before too long I fell in love with her, Now I'll never dance with another,
[C] [E7] [B7] [E7]  
Oh since I saw her standing there.
[B7] [E7]  
Oh since I saw her standing there.
[B7] [A7] [E7]  
Oh since I saw her standing there.

Important: The song above is NOT stored on the Chordie server. The original song is hosted at www.guitaretab.com. Chordie works as a search engine and provides on-the-fly formatting. Chordie does not index songs against artists'/composers' will. To remove this song please click here.

Text color:
Chord color:
Chord grids: 
Font size:    
Page size: 

A7 B7 C E7
Rate #1 of 14 versions

Login - add to songbook

SHARE PAGE  




You need to log in to post comments