Guitar Tabs, Chords and Lyrics
Major upgrade!! After one year development the new version of Chordie is now online! Please give feedback.


Come Together  The Beatles

* Beatles : Come together (Lennon , McCartney)
 
 -------------------------

4 | N.C.(intro) | | | ||
4 shoo shoo shoo shoo
| D5 (verse) | |
Here come old flat top, he come groovin' up slowly, he got
| | |
Joo Joo eyeball, he one holy roller, he got
| A5 | |
hair down to his knees
| G5 | |
Got to be a joker, he just do as he please (2. Come togeth- )
(intro/verse 2)
| B5 (chorus) B5/A | G5 A5 ||
er right now over me
(intro/verse3/chorus)
| N.C. | ||
Right!
| D5 (keyb. solo) | | | ||
Come!
| A5 (guit. Solo) | | | |
come! come!
| | ||
(intro/verse4/chorus/intro)
N.C. (Dm7) (intro x4) D5 (sim.) A5 (sim.) G5
 
 E |----------------------| |-------------|------------|------|
 B |----------------------| |-------------|------------|------|
 G |----------------------| |-------------|------------|------|
 D |-------------10-(12\)-| |-------------|------------|------|
 A |-------10h12----------| |-12-12-14-14-|-7-7-9-9(\)-|-\5---|
 E |-10-10----------------| |-10-10-10-10-|-5-5-5-5(\)-|-\3---| 

B5 (chorus) B5/A G5 A5
 
 E |-----------------|------------|
 B |-----------------|------------|
 G |-----------------|------------|
 D |-4-4-4-4-4-4-4-4-|------------|
 A |-2-2-2-2-2-2-0-0-|-5-5-5-5/7--|
 E |-----------------|-3-3-3-3/5--|

Solo :
[A5] [Dm7]  
 
 E |--------------|-----|--------------|--------------|----|------||
 B |-15~-15-15-13-|-15~-|-15~-15-15----|--------------|-13-|------||
 G |--------------|-----|-----------14-|-12~-12-12-10-|----|------||
 D |--------------|-----|--------------|--------------|----|------||
 A |--------------|-----|--------------|--------------|----|------||
 E |--------------|-----|--------------|--------------|----|------||
 E |-----|-13-13-10-|-----|----------|-----|-10-13-10-|-----|----------|-15~-|
 B |-13~-|----------|-13~-|----------|-13~-|----------|-13~-|-10-13-10-|-----|
 G |-----|----------|-----|-10-12-10-|-----|----------|-----|----------|-----|
 D |-----|----------|-----|----------|-----|----------|-----|----------|-----|
 A |-----|----------|-----|----------|-----|----------|-----|----------|-----|
 E |-----|----------|-----|----------|-----|----------|-----|----------|-----|
 E |-15-15-13-|-15~|-17-20-17-|-20-|-17-20-17-|-20-|-13-13-10-|-15~|-13-13-10-||
 B |----------|----|----------|----|----------|----|----------|----|----------||
 G |----------|----|----------|----|----------|----|----------|----|----------||
 D |----------|----|----------|----|----------|----|----------|----|----------||
 A |----------|----|----------|----|----------|----|----------|----|----------||
 E |----------|----|----------|----|----------|----|----------|----|----------||

He wear no shoeshine, he got
Toe jam football he got
Monkey fingers he shoot
Coca Cola, he say
"I know you, you know me"
One thing I can tell, you is you
Got to be free. Come togeth-
He bag production, he got, walrus gumboot
He got, O no sideboard, he one
Spinal cracker, he got, feet down below
His knees, hold you in his
armchair, you can, feel his disease. Come togeth-
He roller coaster, he got, early warning
He got, muddy water, he one, Mojo filter, he say
"One and one and one, is three"
Got to be good looking, cause he's so hard to see. Come togeth-
*******************************************************************************
Keep rockin !
Max ( Max_Guitarplayer@hotmail.com )
*******************************************************************************

Important: The song above is NOT stored on the Chordie server. The original song is hosted at www.guitaretab.com. Chordie works as a search engine and provides on-the-fly formatting. Chordie does not index songs against artists'/composers' will. To remove this song please click here.

Text color:
Chord color:
Chord grids: 
Font size:    
Page size: 

A5 Dm7
Rate #26 of 31 versions

Jango Player

Login - add to songbook

SHARE PAGE  




You need to log in to post comments