Guitar Tabs, Chords and Lyrics
Major upgrade!! After one year development the new version of Chordie is now online! Please give feedback.


Tell Me What You See  The Beatles

Song: Tell Me What You See
Band: The Beatles
Album: HELP
INTRO: |G| |G|
VERSE 1:
[G]If you let me tak[C]e your heart
[G]I will prove to you
We will never be apart[C]
[G]If I?m part of you
CHORUS 1:
[C]Open up your eyes now[G]
[C]Tell me what you see[G] [C]
It is no surpr[G]ise now
[G]What you see [C]is me[G]
VERSE 2:
[G]Big and black the clo[C]uds may be
[G]Time will pass away
If you put your t[C]rust in me
[G]I?ll make bright your day
CHORUS 2:
[C]Look into these eyes now[G]
[C]Tell me what you see[G] [C]
Don?t you realiz[G]e now
[G]What you see i[C]s me[G]
 
 E-----------------------------------|
 B-7----7----7-----7----5------------|
 G-7----7----7-----7----5------------|
 D-7----7----7-----7----5------------|
 A-5----5----5-----5----3------------|
 E-----------------------------------|

Tell me what you see
(1:04) G
 
 E------------------------------------------------------------------------------------|
 B--------------------------------------------------------------------------5h7p5?5~--|
 G----5--7--9--7--5--7--5-------9--7----7-7-5--9--7--5--7--5----------------------5~--|
 D-7-------------------------------------5--------------------------------------------|
 A------------------------------------------------------------------------------------|
 E------------------------------------------------------------------------------------|

VERSE 3:
[G]Listen to me one [C]more time
[G]How can I get through
Can?t you try to s[C]ee that I?m
[G]Trying to get to you
CHORUS 4:
[C]Open up your eyes now[G]
[C]Tell me what you see[G] [C]
It is no surpr[G]ise now
[G]What you see [C]is me[G]
 
 E-----------------------------------|
 B-7----7----7-----7----5------------|
 G-7----7----7-----7----5------------|
 D-7----7----7-----7----5------------|
 A-5----5----5-----5----3------------|
 E-----------------------------------|

Tell me what you see
(1:47) G
 
 E------------------------------------------------------------------------------------|
 B--------------------------------------------------------------------------5h7p5?5~--|
 G----5--7--9--7--5--7--5-------9--7----7-7-5--9--7--5--7--5----------------------5~--|
 D-7-------------------------------------5--------------------------------------------|
 A------------------------------------------------------------------------------------|
 E------------------------------------------------------------------------------------|

VERSE 4:
[G]Listen to me one [C]more time
[G]How can I get through
Can?t you try to s[C]ee that I?m
[G]Trying to get to you
CHORUS 5:
[C]Open up your eyes now[G]
[C]Tell me what you see[G] [C]
It is no surpr[G]ise now
[G]What you see [C]is me[G]
[D] [C]  
[Mmmmmmmmm]  
(2:30)
 
 E----------------------------------------|
 B----------------------------------------|
 G----5--7--9--7--5--7--5------------4~---|
 D-5---------------------------------5~---|
 A-----------------------------------5~---|
 E-------------------------------3--------|

CHORDS:
G: 3 C: 0 C5 x D5 x
[3]4 [1]0 [5]5 [7]7
[5] [2] [5] [7] 
[5]3 [3]x [3]x [5]x

Important: The song above is NOT stored on the Chordie server. The original song is hosted at www.guitaretab.com. Chordie works as a search engine and provides on-the-fly formatting. Chordie does not index songs against artists'/composers' will. To remove this song please click here.

Text color:
Chord color:
Chord grids: 
Font size:    
Page size: 

C D G
Rate #1 of 9 versions

Login - add to songbook

SHARE PAGE  



You need to log in to post comments