Guitar Tabs, Chords and Lyrics
Major upgrade!! After one year development the new version of Chordie is now online! Please give feedback.


You Never Give Me Your Money  The Beatles

Intro: Am7 Dm7 G7 Fmaj7 Gm7 E7 Am A7
[Am7]You never give me your [Dm]money
[G7]You only give me your [C]funny paper
[Fmaj7]and in the middle of nego[E7sus4]tiations[E7]
you [Am]break down[Am7]
I never give you my number
I only give you my situation
and in the middle of investigation
I break down
[C]Out of college, [E]money spent
[Am]See no future, [C7]pay no rent
[F]All the money's [G]gone nowhere to go[C7]
[C]Any jobber [E]got the sack
[Am]Monday morning [C7]turning back
[F]Yellow lorry [G]slow nowhere to go[C]
But [Bb]oh, that magic feeling[F], nowhere to go[C]
[Bb]Oh, that magic feeling[F]
Nowhere to [C]go
Bb F C (x3)
[D] [D#] [G] [C] [A] [D#] [C] [F#] [D#] [A] [F#] [G] [G#]  
[A5] [A6]  
[A5]One sweet[A6] [A5]dream[B5] [B6] [B5]
[C5]Pick up the bags and [E]get in the limous[A5]ine[A5] [A6] [A7] [A6] [A7]
[Dm]Soon we'll be [G]away from here
[D7]Step on the gas and [G]wipe that tear away[A5] [A6] [A5]
One sweet drea[B5]m came true[C] [Cmaj7] today[A]
Came true today
Came true today, yes it did
One two three four five six seven,
All good children go to Heaven
 
 --------------------------------------------------------------------------------------

[Am7] [Dm7] [Fmaj7] [Gm7] [E7sus4] [Bb] [D#] [F#] [G#] 
 
 -0- -1- -0- -3- -0- -1- -x- -1- -4-
 -1- -1- -1- -3- -0- -3- -x- -1- -4-
 -0- -2- -2- -3- -2- -3- -x- -1- -5-
 -2- -0- -2- -3- -0- -3- -x- -3- -6-
 -0- -0- -0- -5- -2- -1- -13- -3- -6-
 -0- -0- -1- -3- -0- -0- -11- -1- -4-
 --------------------------------------------------------------------------------------

The "One sweet dream"-part.
I prefer not using chords on that part sience it is rather easy to play the lead guitar there.
It goes like this:
 
 e|------- ------- ------- -------|------- ------- ------- -------|
 B|-------------------------------|-------------------------------|
 G|-------------------------------|-------------------------------|
 D|-------------------------------|-------------------------------|
 A|7---7---9-----7---7---7-9---7--|9---9---9-----9-9---9---9H119--|
 E|5---5---5-----5---5---5-5---5--|7---7---7-----7-7---7---7---7--|

One sweet dream
 
 e|------- ------- --- -----------|------- ------- ------- -------|
 B|-------------------------------|------------------------------\|
 G|-------------------------------|------------------------------\|
 D|----------------9-9---9-9---9--|------------------------------\|
 A|10--10--12--10--7-7---7-7---7--|7---7---9---9-7---7---7-9---7--|
 E|-8---8---8---8-----------------|5---5---5---5-5---5---5-5---5--|

Pick bags and get
up the in the limousine
 
 e|1------ ----3-- ------- -------|5------ ----3-- ------- -------|
 B|3-----------0------------------|3-----------0------------------|
 G|2-----------4------------------|5-----------4------------------|
 D|0-----------0------------------|0-----------0------------------|
 A|-------------------------------|-------------------------------|
 E|-------------------------------|-------------------------------|

Soon we'll from here Step and wipe that tear away
be away on the gas
 
 e|------- ------- ------- -------|------- -------|
 B|-------------------------------|---------------|
 G|-------------------------------|---------------|
 D|-------------------------------|---------------|
 A|7---7---9---7-7---7---7-7------|9--------------|
 E|5---5---5---5-5---5---5-5------|7--------------|

One sweet dream came true
 
 e|------- ------- ------- -------|------- ----5-- ------- -------|
 B|------------------------0------|------------2------------------|
 G|--------0-----------0-------0--|--------2----------------------|
 D|----2-----------0--------------|----2--------------------------|
 A|3-----------2------------------|0------------------------------|
 E|-------------------------------|-------------------------------|

today came true today, and it all repeats to the end.
Please msg if anything at all
/Chong

Important: The song above is NOT stored on the Chordie server. The original song is hosted at www.guitaretab.com. Chordie works as a search engine and provides on-the-fly formatting. Chordie does not index songs against artists'/composers' will. To remove this song please click here.

Text color:
Chord color:
Chord grids: 
Font size:    
Page size: 

A A5 A6 A7 Am Am7 B5 B6 Bb C C5 C7 Cmaj7 D D# D7 Dm Dm7 E E7 E7sus4 F F# Fmaj7 G G# G7 Gm7
Rate #0 of 14 versions

Login - add to songbook

SHARE PAGE  




You need to log in to post comments