Guitar Tabs, Chords and Lyrics
Server problems seems to be fixed. Chordie has been experiencing problems with songs disappearing. These issues now seems to be fixed, but still verifying the fix. If you find anything strange, please email admin@chordie.com.


I Don't Care as Long as You Sing  Beatsteaks

Guitar and Bass one step lower (Eb Ab Db Gb Bb Eb)
Chords: Abm Dbm Gb
Am: [(E](5 [A]7 [D]7 [G]5 [B]5 [E)]5)
Dm: ( 5 7 7 6 5)
G : (3 5 5 3 3 )
( 10 12 12 11 10)
C : ( 3 5 5 5 3)
Intro Git.1
 
 e--5-----10-----3------3-----------------|
 b--6-----11-----5---5--5-----------------|
 g--7-----12-----5---5--5-----------------|
 D--7-----12-----5------------------------|
 A--5-----10-----3------------------------|
 E----------------------------------------|

_____________
Intro 1X
_____________
Intro2 Git.1
 
 e--5-----10-----3-----5-----10-----3-------|
 b--6-----11-----5-----6-----11-----5-------|
 g--7-----12-----5-----5-----12-----5-------|
 D--7-----12-----5-----7-----12-----5-------|
 A--5-----10-----3-----5-----10-----3-------|
 E------------------------------------------|

_____________
Rhy.Fig.1
(It is played by the Bass but very important for the song,
so i tabbed it, too)
 
 G---------------------------------------------|
 D---------------------------------------------|
 A--0--0--5--5---------0--0--5--5--------------|
 E--------------3--3-0-------------3--3-0------|

_____________
Rhy.Fig.1 3X
_____________
(Bass: Rhy.Fig.1)
Verse Git.1 (Chorus/Hall)
 
 e--17----------------------------------------------------------------------|
 b--17----------------------------------------------------------------------|
 g--------------------------------------------------------------------------|
 D--------------------------------------------------------------------------|
 A--------------------------------------------------------------------------|
 E--------------------------------------------------------------------------|

Verse Git.2
 
 e--5-5-5-5-5-5-5-5-5-5-5-5-5-5-5-5-5-5-5-5-5-5-5-5-5-5-5-5-5-5-5-5-5-5-5-5-|
 b--5-5-5-5-5-5-6-6-6-6-6-6-6-6-6-6-6-6-5-5-5-5-5-5-6-6-6-6-6-6-6-6-6-6-6-6-|
 g--------------------------------------------------------------------------|
 D--------------------------------------------------------------------------|
 A--------------------------------------------------------------------------|
 E--------------------------------------------------------------------------|

___________
Verse 1X
___________
(Git.2/Bass Verse)
Chorus Git.1
 
 e-----------------5--X-----------------------------5--X--------------------|
 b------5--X-------6--X-------3--X-------5--X-------6--X-------3--X---------|
 g------5--X-------7--X-------4--X-------5--X-------7--X-------4--X---------|
 D------7--X-------7----------5--X-------7--X-------7----------5--X---------|
 A------7------5--------------5----------7------5--------------5------------|
 E--5---------------------3----------5---------------------3----------------|

___________
Chorus 1X
___________
 
 e------------------------------|
 Rhy.Fig.1 3X (Git.1 plays b---X-X-X-X-X-X-X-X-X-X-X-X----|
 this riff at g---X-X-X-X-X-X-X-X-X-X-X-X----|
 \"the feeling D-----------------------------|
 I«ve got...\" A-----------------------------|
 E------------------------------|

___________
Verse 2X
___________
Chorus 2X
___________
Fill 1 (to increase the tension)
Git.1
 
 e----------------------------|
 b--3-----3-----3-----3-------|
 g--4-----4-----4-----4-------|
 D--5-----5-----5-----5-------|
 A--5-----5-----5-----5-------|
 E----------------------------|

Git.2
 
 e--5-5-5-5-5-5-5-5-5-5-5-5---|
 b--5-5-5-5-5-5-6-6-6-6-6-6---|
 g----------------------------|
 D----------------------------|
 A----------------------------|
 E----------------------------|

___________
Refrain Git.1
 
 e--5-----10-----3-------3-----------------|
 b--6-----11-----5----5--5-----------------|
 g--7-----12-----5----5--5-----------------|
 D--7-----12-----5-------------------------|
 A--5-----10-----3-------------------------|
 E-----------------------------------------|

Refrain 1X
___________
Refrain2 Git.1
 
 e--5------10------3------5------10-----3--3--3--3-|
 b--6------11------5------6------11-----5--5--5--5-|
 g--7------12------5------7------12-----5--5--5--5-|
 D--7------12------5------7------12-----5--5--5--5-|
 A--5------10------3------5------10-----3--3--3--3-|
 E-------------------------------------------------|

Rhy.Fig.1 2X (Bass & Guitar 1)
___________
Verse (Git.1 plays Rhy Fig.1,too)
___________
Chorus 10X
___________

Important: The song above is NOT stored on the Chordie server. The original song is hosted at www.guitaretab.com. Chordie works as a search engine and provides on-the-fly formatting. Chordie does not index songs against artists'/composers' will. To remove this song please click here.

Text color:
Chord color:
Chord grids: 
Font size:    
Page size: 

A B D G
Rate #1 of 1 versions

Login - add to songbook

SHARE PAGE  



You need to log in to post comments