Guitar Tabs, Chords and Lyrics
Major upgrade!! After one year development the new version of Chordie is now online! Please give feedback.


Because 7 Ate 9   Before Their Eyes

 
 D|-------------|
 A|-------------|
 F|-------------|
 C|--1-1--1/6--1| (3x)
 G|--1-1--1/6--1|
 C|--1-1--1/6--1|
 D|-------------16|
 A|---------------|
 F|---------------|
 C|--1-1--1/6-----|
 G|--1-1--1/6-----|
 C|--1-1--1/6-----|

 


 


 Verse


 


 (0:11-0:31)


 

 
 D|---------0-------------11|
 A|---------4---------------|
 F|-------------------------| (4x) [1st and 3rd times hit 11]
 C|--1/6\1-----x--6-5-xxxx--| [2nd and 4th times it's muted straight thru]
 G|--1/6\1-----x--6-5-xxxx--|
 C|--1/6\1-----x--6-5-xxxx--|

 


 


 (0:31-0:53)


 

 
 D|---------|
 A|---------|
 F|---------| (4x)

 


 C|--1-1-1-1|


 G|--1-1-1-1|


 C|--1-1-1-1|


 


 I'm not certain about this part but it sounds very close; it's hard to hear


 These notes seem right but i think some are missing.


 (0:53-1:09)


 

 
 D|-------------------------------------------|
 A|-------------18----------------------------|
 F|--15-16-15-16--15-16-15-16-15-16-----------| (4x)**
 C|--------------------------------18-16-15-16|
 G|-------------------------------------------|
 C|-------------------------------------------|
 D|--------------------|
 A|--------------------|
 F|--------------------| Play this once, then play ** (above) one more time
 C|--16-15-13--16-15-13|
 G|--------------------|
 C|--------------------|

 


 


 Chorus (I used to never dream...) (1:09-1:29)


 


 

 
 D|-------------------------|
 A|-------------------------|
 F|---------6------4--------| (4x)
 C|--1------6-(8x)-4-(16x)--|
 G|--1-(8x)-4------2--------|
 C|--1----------------------|
 D|---------|
 A|---------|
 F|---------|

 


 C|--1---13\|


 G|--1---13\|


 C|--1---13\|


 


 Verse (1:33-1:42)


 


 

 
 D|---------0-------------11|
 A|---------4---------------|
 F|-------------------------| (same as before except it's only played twice)
 C|--1/6\1-----x--6-5-xxxx--|
 G|--1/6\1-----x--6-5-xxxx--|
 C|--1/6\1-----x--6-5-xxxx--|
 D|-----------|
 A|-----------|
 F|-----------|
 C|--1-1-1-1-1|
 G|--1-1-1-1-1|
 C|--1-1-1-1-1|

 


 x x x x x (palm mute)


 


 

 
 D|---------|
 A|---------|
 F|---------| (4x)

 


 C|--1-1-1-1|


 G|--1-1-1-1|


 C|--1-1-1-1|


 


 (2:05-2:20)


 

 
 D|-------------------------------------------|
 A|-------------18----------------------------|
 F|--15-16-15-16--15-16-15-16-15-16-----------|
 C|--------------------------------18-16-15-16|
 G|-------------------------------------------|
 C|-------------------------------------------|
 D|--------------------|
 A|--------------------|
 F|--------------------| same as before, play this then the above 1 more time
 C|--16-15-13--16-15-13|
 G|--------------------|
 C|--------------------|

 


 


 Chorus repeated (2:20-2:40)


 


 Then for the outro! (2:40-END)


 


 

 
 D|-----------0----------------|
 A|-----------4----------------|
 F|----------------------------| (2x)
 C|--9\1--9\1----9\1--9\1--xxxx|
 G|--9\1--9\1----9\1--9\1--xxxx|
 C|--9\1--9\1----9\1--9\1--xxxx|


Important: The song above is NOT stored on the Chordie server. The original song is hosted at www.guitaretab.com. Chordie works as a search engine and provides on-the-fly formatting. Chordie does not index songs against artists'/composers' will. To remove this song please click here.

This song is displayed as text-only. Transposing and tuning is only available for chordpro-songs.
Rate #1 of 1 versions

Login - add to songbook

SHARE PAGE  



You need to log in to post comments