Guitar Tabs, Chords and Lyrics
Major upgrade!! After one year development the new version of Chordie is now online! Please give feedback.


Calculating Bimbo  Belle and Sebastian

Capo on 1st
I couldn't figure out the second solo, but starts in the D like the intro, then
goes to Am that I couldn't figure.
intro:
[D]  
 
 E||-----------2-----------2--|-----------2--------------|
 B||-----3-----------3--------|-----3-----------3--------|
 G||--------2-----------2-----|--------2-----------2-----|
 D||--0-----------------------|--------------------------|
 A||--------------------------|--------------------------|
 E||--------------------------|--------------------------|

[G]  
 
 -----------3-----------3--|-----------3--------------|
 -----3-----------3--------|-----3-----------3--------|
 --------4-----------4-----|--------4-----------4-----|
 --------------------------|--------------------------|
 --2-----------------------|--------------------------|
 --------------------------|--------------------------|

[A] [G] [D]  
 
 -----------5--------------|-----------3--------------|------------------------||
 -----5-----------5--------|-----3-----------3--------|------------------------||
 --------6-----------6--L--|--------4-----------4--L--|--4--2--0--2------------||
 --------------------------|--------------------------|------------------------||
 --4-----------------------|--2-----------------------|------------------------||
 --------------------------|--------------------------|------------------------||

[D]A lack of understanding
You [Em]took for being lazy
I [Bm]was just being lazy
I'm [A]even doing it now[A]
I know that you have s[G]aved me
I love that you have s[D]aved [G]me[D] [G]
[D]Save your pennies careful
Let [Em]both blue eyes be watchful
It's [Bm]best to forget freedom
It's [A]best to be enslaved[A]
It's better still to l[G]ove first
It's harder still to l[D]ove f[G]irst[D] [G]
(Bridge): D Am G D
[(D)]You're my winter queen that d[Am]isappeared
Your hands grew cold
You [G]ran a mile from my win[D]gs(?)
I still heard you had a [Am]? ? view
With lots of time
And [G]notebook full of the f[Bm]inest, creamy, rich girl parchment pages
Slowly filled with all your p[A]assing days
Every sacred [G]word paints a p[D]ict[G]ure[D] [G]
[D]Bigger were his muscles
saying f[Em]ather going ?
But w[Bm]hen you are in trouble
And w[A]hen you are uptight
I get the midnight [G]phone call
I'm your captain for the l[D]ong h[G]aul[D] [G]
Solo: D Em Bm G
If [Bm]someone else is near me
You s[G]cuttle up the pavement
It's n[D]o one that I care for
I p[A]ause for an effect
You calculating [G]bimbo
I wish you'd let the p[D]ast g[G]o

Important: The song above is NOT stored on the Chordie server. The original song is hosted at www.guitaretab.com. Chordie works as a search engine and provides on-the-fly formatting. Chordie does not index songs against artists'/composers' will. To remove this song please click here.

Text color:
Chord color:
Chord grids: 
Font size:    
Page size: 

A Am Bm D Em G
Rate #1 of 4 versions

Login - add to songbook

SHARE PAGE  



You need to log in to post comments