Guitar Tabs, Chords and Lyrics
Major upgrade!! After one year development the new version of Chordie is now online! Please give feedback.


If She Wants Me  Belle and Sebastian

Chords:
 
 -7----8----5------------------------------------------|
 -8----8----5------------------------------------------|
 -7----9----5------------------------------------------|
 -5---10----7------------------------------------------|
 -----10----7------------------------------------------|
 ------8----5------------------------------------------|

[G] [C] [Am]  
Riff:
 
 -7-x-x-7-x-x-7-x-8-8----------------------------------------|
 -8-x-x-8-x-x-8-x-8-8----------------------------------------|
 -7-x-x-7-x-x-7-x-7-7----------------------------------------|
 ------------------------------------------------------------|
 ------------------------------------------------------------|
 ------------------------------------------------------------|

Verse:
I wrote a [C]letter on a nothing [G]day
I asked some[C]body "Could you send my [G]letter away?"
"You are too [C]young to put all of your [G]hopes in just [C]one enve[G]lope"
I said goodbye to someone that I love
It's not just me, I tell you it's the both of us
And it was hard like coming off the pills that you take to stay happy
Someone above has seen me do alright
Someone above is looking with a tender eye
Upon her face, you may think you're alone but you may think again
(Chorus)
If I could do just [C]one near perfect thing I'd be hap[G]py
They'd write it on my [C]grave, or when they scattered my a[G]shes
On second thoughts I'd [Am]rather hang about and be [C]there with my best
friend
(intro riff)
If she wants me
And far away somebody read the letter
He condescends to read the words I wrote about him
And if he smiles, it's no more than a genius deserves
For all your curious nerve and your passion
I'm going deaf, you're growing melancholy
Things fall apart, I don't know why we bother at all
But life is good and "It's always worth living at least for a while"
(Chorus)
If you think to yourself "What should I do now?"
Then take the baton, girl, you better run with it
There is no point in standing in the past cause it's over and done with
I took a book and went into the forest
I climbed the hill, I wanted to look down on you
But all I saw was twenty miles of wilderness so I went home

Important: The song above is NOT stored on the Chordie server. The original song is hosted at www.guitaretab.com. Chordie works as a search engine and provides on-the-fly formatting. Chordie does not index songs against artists'/composers' will. To remove this song please click here.

Text color:
Chord color:
Chord grids: 
Font size:    
Page size: 

Am C G
Rate #6 of 7 versions

Login - add to songbook

SHARE PAGE  




You need to log in to post comments