Guitar Tabs, Chords and Lyrics
Major upgrade!! After one year development the new version of Chordie is now online! Please give feedback.


Promise Me �??�?��??�?��?��??�?� �??�?��??�?��??�??�?��??  Beverley Craven

tabbed by:tom labonete
im sure this is how the piano sounds.
part one part two part three part four
 
 E-10----10----10---|-9----9----9----|------------------|-9-----9----9------*
 B-----12----12-----|----12---12-----|-12---12----12----|-----12---12-------*
 G---11----11----11-|--11---11----11-|----11----11------|---11---11----11---*
 D------------------|----------------|---12---12-----12-|-------------------*
 A------------------|----------------|------------------|-------------------*
 E------------------|----------------|------------------|-------------------*

do that twice,but dont play part four after part three on the second round,instead pluck this:
[E-----]  
[B-11--]G-10--
D-11-- (listen the timing of the song ok?)
[A-----]  
[E-----]  
to begin the Bm chord on every verse, do this:
 
 ----------2----|
 --0---2---3----|
 --0---3---4----|
 --0---3---4----|
 ----------3----|
 ----------3----|

[Bm] You light up an[A]other cigarette
And I[F#m] pour the win[G]e
[Bm] It's four o'clock in the mo[A]rning
And it's [F#m]starting to get lig[G]ht
[Bm] Now I'm right where I wa[A]nna be
[F#m]Losing track of ti[G]me
Em F#m Bm (pluck upwards)
But I wish that it was still last night
while plucking Bm, do a combination of this
 
 --------------------------------------------|
 -3--3--3---3-----3------3--3--3---3--2------|
 --4--4--4---4--4--4--4----4--4--4-----------|
 ---4--4------4-----4-------4--4-------------|
 -----------2-----3--------------------------|
 ------------------------3---------2--4------| swith to Bm

[Bm] You look like you're [A]in another world
But I[F#m] can read your min[G]d
[Bm] How can you b[A]e so far away
[F#m]Lying by my sid[G]e
[F#] When I go awa[Bm]y I'll miss you
[B] And I will be th[Em]inking of you
[C] Every ni[D]ght and d[Dsus]ay just...
[G]Promise me you'll w[D]ait for me
'cos I[C]'ll be saving a[D]ll my love for y[G]ou
And [D]I will be home s[C]oo-o-o-o[D]on
[G]Promise me you'll w[D]ait for me
C B Em Em*(003000)
I need to know you feel the same way too
An[C]d I'll be home, [D]I'll be home soo[G]n
(verse chords once until it reaches...)
...when i go away ill miss you...
do chorus
fade..
just text or email me if you have any corrections
kristofer_tom@yahoo.com09157804431

Important: The song above is NOT stored on the Chordie server. The original song is hosted at www.guitaretab.com. Chordie works as a search engine and provides on-the-fly formatting. Chordie does not index songs against artists'/composers' will. To remove this song please click here.

Text color:
Chord color:
Chord grids: 
Font size:    
Page size: 

A B Bm C D Dsus Em F# F#m G
Rate #1 of 2 versions

Login - add to songbook

SHARE PAGE  




You need to log in to post comments