Guitar Tabs, Chords and Lyrics
Major upgrade!! After one year development the new version of Chordie is now online! Please give feedback.


MacArthur Park Revisited  The Bicycle Thief

The chords:
[G] [Am] [C] [F]  
 
 e|--3--| |--0--| |--0--| |-----|
 b|--3--| |--1--| |--1--| |-----|
 g|--0--| |--2--| |--0--| |--2--|
 d|--0--| |--2--| |--2--| |--3--|
 a|--2--| |--0--| |--3--| |--3--|
 e|--3--| |-----| |-----| |--1--|

Intro:
[G/] [AM/] [C/] [G/] [Am] [/] [C]  
 
 e|--------------------------------------------|
 b|--12h13p12----------------------------------|
 g|----------12--------14--14---9-10-12-10-9---|
 d|------------12-s-14---14-----10-10-10-10-10-|
 a|--------------------------------------------|
 e|--------------------------------------------|
 e|---------------------------------------------------|
 b|--12h13p12-----------------------------------------|
 g|----------12--------14---14---9-10-12-10-9---s-12--|
 d|------------12-s-14----14-----10-10-10-10-10-------|
 a|---------------------------------------------------|
 e|---------------------------------------------------|

I[G]n the decade [AM]of dysfunctio[C]n Well I consider myself a [G]true Ameri[AM]can[C]
Yeah, I[G] am just an in[AM]grate And I am n[C]ot very intelligent but I read[G] a lot[AM] [C]
And [AM]I make the sa[C]me mistakes
[AM]End up in t[C]he same place
Ov[AM]er and ov[C]er again[G]
Yeah [AM]I make the s[C]ame mistakes
En[AM]d up in th[C]e same place
[AM]Over and o[C]ver and over[G] [/] [G/]
and [G]I have got it t[AM]oo good Well I k[C]now that intellectually But I don't f[G]eel it muc[AM/]h[C]
And self[G]ishness is a virt[AM]ue When I lo[C]ok around I know that I don't h[G]ave enough[AM/] [C]
And [AM]I make the sa[C]me mistakes
[AM]End up in t[C]he same place
Ov[AM]er and ov[C]er again[G]
Yeah [AM]I make the s[C]ame mistakes
En[AM]d up in th[C]e same place
[AM]Over and o[C]ver and over[G]
And the [AM]park it has a lake And grass and trees and flowers I'm a m[F]ess again
And the [AM]park is filled with kids And they are happy playing I'm a m[F]ess again
The par[AM]k has got young love A kissin' and a smilin' I'm a m[F]ess again
And the p[AM]ark has got a lake And grass and kids and love And I'm a me[F]ss again
The solo guitar part with this goes like this:
(remember that it is played with the tremolo on his (SO BEAUTIFUL!!) guitar...
 
 e|--8-----8-----12--12--|
 b|--10----10----10--10--|
 g|--9-----9-----10--10--|
 d|----------------------|
 a|----------------------|
 e|----------------------|

play this 4 times....
[G/]2 t[AM/]imes[C/]
Listen bu[G]rn down all the r[AM]ain forests Kil[C]l all the dolphins I don't g[G]ive a shit[AM/] [C]
Yeah, y[G]ou can't tell me [AM]nothin' Well I[C] am arrogant I am [G]powerful[AM] [C]
And [AM]I make the sa[C]me mistakes
[AM]End up in t[C]he same place
Ov[AM]er and ov[C]er again[G]
Yeah [AM]I make the s[C]ame mistakes
En[AM]d up in th[C]e same place
[AM]Over and o[C]ver and over[G]
And the [AM]park it has a lake And grass and trees and flowers I'm a m[F]ess again
And the [AM]park is filled with kids And they are happy playing I'm a m[F]ess again
The par[AM]k has got young love A kissin' and a smilin' I'm a m[F]ess again
And the p[AM]ark has got a lake And grass and kids and love And I'm a me[F]ss again
Solo part:
 
 e|--8-----8-----12--8---|
 b|--10----10----10--8---|
 g|--9-----9-----10--9---|
 d|----------------------|
 a|----------------------|
 e|----------------------|

play this 4 times...

Important: The song above is NOT stored on the Chordie server. The original song is hosted at www.guitaretab.com. Chordie works as a search engine and provides on-the-fly formatting. Chordie does not index songs against artists'/composers' will. To remove this song please click here.

Text color:
Chord color:
Chord grids: 
Font size:    
Page size: 

Am Am C F G
Rate #3 of 3 versions

Login - add to songbook

SHARE PAGE  



You need to log in to post comments