Guitar Tabs, Chords and Lyrics
Login is temporarily disabled for some users. Do not panic. Will be back in an hour or two. DO NOT REREGISTER!!


Folding Stars  Biffy Clyro

 
 -------------------------------------------------------------------------------

Folding Stars (Acoustic) - Biffy Clyro
 
 -------------------------------------------------------------------------------

Tabbed by: Calum Murray
Email: calummurray14@hotmail.co.uk
Simon Neil plays this in drop D but i will also give the chords for standard tuning :D
Drop D:
[D/C#] [D1] [G] [D2] [Asus4] [Bm] [E5] [F#5] [G5] [A5]  
 
 e|-x----x---x---2----0-----2---x---x----x---x---|
 B|-3----3---3---3----3-----3---x---x----x---x---|
 G|-2----2---0---2----2-----4---x---x----x---x---|
 D|-x----x---x---0----2-----4---2---4----5---7---|
 A|-4----5---5---0----0-----2---2---4----5---7---|
 D|-x----x---5---0----0---------2---4----5---7---|

Standard:
[D/C#] [D1] [G] [D2] [Asus4] [Bm] [E5] [F#5] [G5] [A5]  
 
 e|-x----x---x---2----0-----2---x---x----x---x---|
 B|-3----3---3---3----3-----3---x---x----x---x---|
 G|-2----2---0---2----2-----4---x---x----x---x---|
 D|-x----x---0---0----2-----4---2---4----5---7---|
 A|-4----5---x---x----0-----2---2---4----5---7---|
 D|-x----x---3---x----x---------0---2----3---5---|

Intro: D/C# D1 G G x4
Verse: D/C# D1 G G x4
Take a long hard look at yourself
How did you end up here
The blood drips like red inverted balloons
Tomorrow is a promise to no-one
Bridge:
If you w[E5]ant, follow [F#5]me and I'll le[G5]ad you ins[A5]ide
You don't ha[E5]ve t[F#5]o ru[G5]n and [A5]hide
Chorus:
[D2]Elea[Asus4]nor, E[A]lea[Bm]nor
I would do [G]anything for another [E5]minute with you 'cause
[D2]It's not getting easier, [Asus4]it's not getting easier
D/C# D1 G G x2
Verse: D/C# D1 G G x4
In a bedroom with no windows or doors
All the happy people are crying
You can't hold a gaze for a second or two
It always ends in total darkness
If you w[E5]ant, follow [F#5]me and I'll le[G5]ad you ins[A5]ide
You don't ha[E5]ve t[F#5]o ru[G5]n and [A5]hide
[D2]Elea[Asus4]nor, E[A]lean[Bm]or
I would do [G]anything for another [E5]minute with you 'cause
[D2]It's not getting easier, [Asus4]it's not getting easier
[D2]You will be foldi[Asus4]ng stars
[A]You will be foldi[Bm]ng stars
[G]You can't ever understand
[E5]You can't ever understand
[D2]It's not getting easier, [Asus4]it's not getting easier
D/C# D1 G G x 4
It e[E5]nds in a place[F#5] with no l[G5]ove only h[A5]ate
And a [E5]mirror reflecting th[F#5]e truth[G5] [A5]
In your [E5]eyes, in your fac[F#5]e you can't[G5] wash it a[A5]way
From your [E5]cold[F#5], co[G5]ld h[A5]eart
[D2]Elea[Asus4]nor, E[A]lean[Bm]or Whoa! Whoa!
I would do [G]anything for another [E5]minute with you 'cause
[D2]It's not getting easier, [Asus4]it's not getting easier
[D2]You will be foldi[Asus4]ng stars
[A]You will be foldi[Bm]ng stars
[G]You can't ever understand
[E5]You can't ever understand
[D2]It's not getting easier, [Asus4]it's not getting easier
D/C# D1 G G x 2
[D/C#]It's not getting eas[D1]ier, it'[G]s not getting e[G]asier
D/C# D1 G (hold)
I hope that you're folding stars

Important: The song above is NOT stored on the Chordie server. The original song is hosted at www.guitaretab.com. Chordie works as a search engine and provides on-the-fly formatting. Chordie does not index songs against artists'/composers' will. To remove this song please click here.

Text color:
Chord color:
Chord grids: 
Font size:    
Page size: 

A A5 Asus4 Bm D/C# D2 E5 F#5 G G5
Rate #1 of 9 versions

Jango Player

Login - add to songbook

SHARE PAGE  



You need to log in to post comments