Guitar Tabs, Chords and Lyrics
Server problems seems to be fixed. Chordie has been experiencing problems with songs disappearing. These issues now seems to be fixed, but still verifying the fix. If you find anything strange, please email admin@chordie.com.


Time  Big Wreck

Time(easy arrangement)
Tuning: Open E(1/2 step down)
Low to High Eb-Bb-Eb-G-Bb-Eb
Chord Forms I
intro/Verse Pre-chorus Chorus/Bridge
[Eb] [Eb6/#11] [EbM7] [C-7] [F7sus4] [Absus2] [Bbsus4] [Eb] [Ab] [Absus2] [F7sus4] [Bbsus4] [C-7]  
 
 -0----0----0-----]--0---0-----0------0--]--0-------0------0---0---0----]
 -0----0----0-----]--0---0-----0------0--]--0-------0------0---0---0----]
 -0----2----3-----]--x---x-----x------x--]--0-------x------x---x---x----]
 -0----0----0-----]--9---2-----5------7--]--0---5---5------2---7---9----]
 -0----2----4-----]--9---2-----5------7--]--0---x---5------2---7---9----]
 -0----0----0-----]--9---2-----5------7--]--0---5---5------2---7---9----]

Intro:
Eb - Eb6/#11 - EbM7 - Eb6/#11 Repeat once
Verse 1
[Eb]A pretty little memory [Eb6/#11]fades away
[EbM7]Nobody ever takes [Eb6/#11]notice
[Eb]Gra[E]ndfather clocks and a [b6/#11]wristwatch will [EbM7]never be on yo[Eb6/#11]ur side
[C-7]I?m sure I?ve killed more than my [F7sus4]share of it
[Absus2]And still the moment[Bbsus4]s tick away
Teaser Chorus
[Eb]If I could go back[Ab] in[Eb] time[Ab]
[Eb]What would I change of[Ab] mi[Eb]ne
Intro x1
Verse 2
[Eb]Is there any such thing as a w[Eb6/#11]aste of time
[EbM7]Time?s the one wastin[Eb6/#11]g us
[Eb]And all the moments that you f[Eb6/#11]eel the need to keep
[EbM7]Will surely be swept[Eb6/#11] away
[C-7]They say that it will heal up a[F7sus4]ll your wounds
[Absus2]And isn?t it a wound [Bbsus4]itself
Chorus
Eb Ab Eb (see chorus insert)
If I could go back in time
[Eb]What would I change o[Ab]f m[Eb]ine
[Absus2]I?ve wasted way too much of it
[F7sus4]Just wishing I could go back in it
[Bbsus4]Takes time to figure out why I?m always running out
Inst. Break Part 1 Repeat 1x
La la la la la la la la la la la la
 
 --0----0---0---0------0---0---0---0-----0----0----0----0-----]
 --0----0---0---0------0---0---0---0-----0----0----0----0-----]
 --5----7---8---7------5---7---8---7-----0----5----7----5-----]
 --x-------------------x-----------------0----7----7----7-----]
 --5-------------------5-----------------0--------------------]
 --5----(Let ring)-----5-----------------0--------------------]

Inst. Break Part 2/Bridge Repeat 2x
[F7sus4]Laaaa la la la la la [C-7]laaaaa la laaa la [Bbsus4]laaaao
[F7sus4]Left on your [C-7]own
[Bbsus4]You count the moments
[F7sus4]Time heals and [C-7]flies
[Bbsus4]It comes and goes
[Bbsus4]Takes forever
[Bbsus4]Through the years
[Bbsus4]We disappear
Chorus/Tag
[Eb]If I could go back in[Ab] ti[Eb]me[Ab]
[Eb]What would I change of [Ab]min[Eb]e
[Asus2]I?ve wasted way too much of it
[F7sus4]Just wishing I could go back in it
[Bbsus4]Takes time to figure out ([F7sus4]Laaaa la la la la la[C-7] laaaaa la laaa l[Bbsus4]a laaaao)
It takes time to figure out ([F7sus4]Laaaa la la la la la [C-7]laaaaa la laaa la [Bbsus4]laaaao)
[Bbsus4]Takes time to figure out
[Bbsus4]Why I?m always running out.
Outro same as intro
Chorus insert (riff at end of 1st line of chorus)
 
 -----------------------0-------]
 -----------------------0-------]
 -----------------------0-------]
 ----8-----7-----5------0-------]
 ----x-----x-----x------0-------]
 ----8-----7-----5------0-------]


Important: The song above is NOT stored on the Chordie server. The original song is hosted at www.guitaretab.com. Chordie works as a search engine and provides on-the-fly formatting. Chordie does not index songs against artists'/composers' will. To remove this song please click here.

Text color:
Chord color:
Chord grids: 
Font size:    
Page size: 

Ab Asus2 Bbsus4 C-7 E Eb Ebm7 F7sus4
Rate #1 of 1 versions

Jango Player

Login - add to songbook

SHARE PAGE  



You need to log in to post comments