Guitar Tabs, Chords and Lyrics
Server problems seems to be fixed. Chordie has been experiencing problems with songs disappearing. These issues now seems to be fixed, but still verifying the fix. If you find anything strange, please email admin@chordie.com.


All by Design   Big Wreck

 
 Eb-----9-9-7---7------9-12-7---7-----------|
 Bb-----0-0-0----0-----0-0--0----0----------|
 Gb-----7-7-9--6--6----7-9--9--6--6---------| [repeat a few times]
 Db-----------7----7----------7----7--------|
 Gb-----------------------------------------|
 Db--0--------------0-----------------------|

 


 


 ....."to drop me at the old lady's...."


 v v v v v v v


 

 
 Eb-----9-9-7-------7-----9-12-7------------|
 Bb-----0-0-0-------0-----0-0--0------------|
 Gb-----7-7-9-------9-----7-9--9------------| [then back to the above]
 Db-----------------------------------------|
 Gb--0---------0---0----0--------0----------|
 Db-----------------------------------------|

 


 


 ...."and it's all by design...."


 


 

 
 Eb------------------------------|
 Bb--2-------------4---7---12----|
 Gb--2-------------4---7---12----|
 Db--2-------------4---7---12----|
 Gb--2-------------4---7---12----|
 Db------------------------------|

 


 


 [verse] (clean)


 v v v v v v


 

 
 Eb----2-------------------2-3-0-----------------------------|
 Bb--3-3-3-2----2---2h3-3--3-3-2----2---2h3------------------|
 Gb--2-2-2-2--2---2-----2--2-0-2--2---2----------------------| [repeat]
 Db--0------------------0------------------------------------|
 Gb--2------------------2------------------------------------|
 Db--0------------------0------------------------------------|

 


 


 [cborus] (distortion)


 ...."it's the whole nine yards..."


 


 

 
 Eb-x-x-x-x-3--3--3-3-3-3------3--3--3-3-3-3----------|
 Bb-x-x-x-x-0--0--0-0-0-0------0--0--0-0-0-0----------|
 Gb-x-x-x-x-0--0--0-0-0-0------0--0--0-0-0-0----------|
 Db-x-x-x-x-0--0--0-0-0-0------0--0--0-0-0-0----------|
 Gb-x-x-x-x-0--0--0-0-0-0------0--0--0-0-0-0------2---|
 Db-x-x-x-x-5--5--5-5-5-5-4~~--5--5--5-5-5-5--b4--0---|
 Eb-------------------------------|
 Bb-------------------------------|
 Gb--11---7-6---------11---7-6----|
 Db--11---7-6---------11---7-6----|
 Gb--11---7-6-----2---11---7-6----|
 Db-----------b4--0---------------|

 


 


 [cborus pt.2] 


 ...."and it's all by design....."


 [..........]-there's something else here on guitar 2.


 

 
 Eb------------0--0-0--0-0-----------3--3-3--3-3------------|
 Bb------------0--0-0--0-0-----------0--0-0--0-0---7---(6)--|
 Gb--4--4h6p4--2--2-2--2-2---4---7---0--0-0--0-0---7--------|(6)occasionally this is
 Db--4--4h6p4--2--2-2--2-2---4---7---0--0-0--0-0---7--------|(6)in the mix at the end
 Gb--4--4h6p4--2--2-2--2-2---4---7---0--0-0--0-0---7---(6)--|
 Db----------------------------------5--5-5--5-5------------|

 


 


 [solo] 


 


 

 
 Eb-2-3p2--0-2-3-3---------------0-5---3p2h3---2---0---------------------|
 Bb-------5---------------------3----------------------------------------|
 Gb----------------4~~~~~~~~~~~------------------------------------------|
 Db----------------------------------------------------------------------|
 Gb----------------------------------------------------------------------|
 Db----------------------------------------------------------------------|
 Eb--5--5/7------5-5/7-7----10-12-----10-12/14---------------------------|
 Bb------------7-----------------10--------------------------------------|
 Gb--------7----------------------------------12-------------------------|
 Db----------------------------------------------------------------------|
 Gb----------------------------------------------------------------------|
 Db----------------------------------------------------------------------|
 Eb--12-14-14^-^-12------------------------------------------------------|
 Bb-----------------15-13------------------------------------------------|
 Gb----------------------14-14-11--9-9-9h11h12p11p9--9------9------------|
 Db------------------------------------------------12--11-12-------------|
 Gb----------------------------------------------------------------------|
 Db----------------------------------------------------------------------|
 Eb-------------------------12-16^-~~~~~~~~~~----------------------------|
 Bb--10h11h12-10h11h14-11-14---------------------------------------------|
 Gb----------------------------------------------------------------------|
 Db----------------------------------------------------------------------|
 Gb----------------------------------------------------------------------|
 Db----------------------------------------------------------------------|


Important: The song above is NOT stored on the Chordie server. The original song is hosted at www.guitaretab.com. Chordie works as a search engine and provides on-the-fly formatting. Chordie does not index songs against artists'/composers' will. To remove this song please click here.

This song is displayed as text-only. Transposing and tuning is only available for chordpro-songs.
Rate #0 of 3 versions

Jango Player

Login - add to songbook

SHARE PAGE  



You need to log in to post comments