Guitar Tabs, Chords and Lyrics
Server problems seems to be fixed. Chordie has been experiencing problems with songs disappearing. These issues now seems to be fixed, but still verifying the fix. If you find anything strange, please email admin@chordie.com.


Hamster Baby  Bikini Kill

Start with a few seconds of feedback
Main Riff:
 
 E|--------------------------------------------|
 B|--------------------------------------------|
 G|--------------------------------------------|
 D|--------------------------------------------| About 8x
 A|-----------5--5--5--------------------------|
 E|--0--0--0-----------5--5--3--3--5--5--3--3--|

Chorus: Moderately Fast
[B] [B] [D]  
 
 E|----- ------ ----------|
 B|----- ------ ----------|
 G|----- ------ ------7---|
 D|--9-- 8x Pause -9---- 8x Brief Pause ------7---| 5x?
 A|--9-- -9---- ------5---|
 E|--7-- -7---- ----------|

E|-----
B|-----
G|-----
D|--9-- 8x
A|--9--
E|--7--
 
 E|-----------------|
 B|-----------------|
 G|-----------------|
 D|--9--8--6--5--2--|
 A|--9--8--6--5--2--|
 E|--7--6--4--3--0--|

Main Riff:
 
 E|--------------------------------------------|
 B|--------------------------------------------|
 G|--------------------------------------------|
 D|--------------------------------------------| About 8x
 A|-----------5--5--5--------------------------|
 E|--0--0--0-----------5--5--3--3--5--5--3--3--|

Lyrics:
hello hello hello hello hello hello hello
hello hello hello hello hello hello hello
where is our next show in Honolulu
where is our next show, in Honolulu
where is our next show in Honolulu
where is our next show in Honolulu
do we get to go there for free?
do we get to get in for free?
do we get to get in for free?
oh yes we do
but not with you
hello hello hello hello hello hello hello
hello hello hello hello hello hello hello
where is our next show in Honolulu
where is our next show, in Honolulu
where is our next show in Honolulu
where is our next show in Honolulu
do we get to go there for free?
do we get to get in for free?
do we get to get in for free?
oh yes we do
but not with you
oh Everett True
where are you?
who is gonna carry the tape deck?
who is gonna carry the bass amp?
who is gonna buy us a van?
it could be you
it could be you
it could be you
it will come true
oh

Important: The song above is NOT stored on the Chordie server. The original song is hosted at www.guitaretab.com. Chordie works as a search engine and provides on-the-fly formatting. Chordie does not index songs against artists'/composers' will. To remove this song please click here.

Text color:
Chord color:
Chord grids: 
Font size:    
Page size: 

B D
Rate #1 of 1 versions

Jango Player

Login - add to songbook

SHARE PAGE  



You need to log in to post comments