Guitar Tabs, Chords and Lyrics
Major upgrade!! After one year development the new version of Chordie is now online! Please give feedback.


Goodnight Saigon  Billy Joel

 
 ---------------------------------------------------------------------------

Goodnight Saigon - Billy Joel
 
 ---------------------------------------------------------------------------

Tabbed by: maguri
Tuning: Standard
Billy Joel
Goodnight Saigon (1982)
(Billy Joel)
From: "The Nylon Curtain"
 
 ---------------------------------------------------------------------------

CHORDS
e-B-G-D-A-E
Bbmaj7 1-3-2-3-1-x
Dm/F 1-3-2-3-x-x
C/E 0-1-0-2-x-x
Dm/C 1-3-2-x-3-x
F/A x-1-2-3-0-x
C/Bb 0-1-0-2-1-x
G7/B x-3-0-3-2-x
Dm/A x-3-2-3-0-x
 
 E-9 1-0-1-2-x-x

E7 0-3-1-2-x-x
 
 --------------------------------------------------------------------------

INTRO
[F] [Dm] [Bbmaj7] [G]  
 
 e|----------------|----------------|----------------|----------------|
 B|----0---1---3---|----0---1---3---|----0---1---3---|----0---1---0---|
 G|2---0---2---4---|2---0---2---4---|2---0---2---4---|2---0---2---0---|
 D|3---------------|3---------------|3---------------|3---------------|
 A|----------------|----------------|----------------|----------------|
 E|----------------|----------------|----------------|----------------|

We met as ...
INTRO 2
[Bb] [G] [D] [G7]  
 
 e|----0---1---3---|----0---1---3---|5---7---8---10--|5---7---8---10--|
 B|3---1---3---5---|3---1---3---5---|7---8---10--12--|6---8---10--12--|
 G|3---------------|4---------------|----------------|----------------|
 D|----------------|----------------|----------------|----------------|
 A|----------------|----------------|----------------|----------------|
 E|----------------|----------------|----------------|----------------|

We had no ...
INTRO 3
[G] [F] [Dm] [G]  
 
 e|----------------|----------------|----------------|----------------|
 B|----0---1---3---|----0---1---3---|----0---1---3---|----0---1---0---|
 G|2---0---2---4---|2---0---2---4---|2---0---2---4---|2---0---2---0---|
 D|3---------------|3---------------|3---------------|3---------------|
 A|----------------|----------------|----------------|----------------|
 E|----------------|----------------|----------------|----------------|

Re-mem-ber ...
INTRO 4
[Bb] [G]  
 
 e|----0---1---3---|5---7---8---10--|
 B|3---1---3---5---|6---8---10--12--|
 G|3---------------|----------------|
 D|----------------|----------------|
 A|----------------|----------------|
 E|----------------|----------------|

INTRO 5
[G] [F]  
 
 e|----------------|----------------|
 B|----0---1---3---|----0---1---3---|
 G|2---0---2---4---|2---0---2---4---|
 D|3---------------|3---------------|
 A|----------------|----------------|
 E|----------------|----------------|

OUTRO
[Dm] [Bbmaj7] [G] [F]  
 
 e|----------------|----------------|----------------|----------------|
 B|----0---1---3---|----0---1---3---|----0---1---3---|----0---1---0---|
 G|2---0---2---4---|2---0---2---4---|2---0---2---4---|2---0---2---0---|
 D|3---------------|3---------------|3---------------|3---------------|
 A|----------------|----------------|----------------|----------------|
 E|----------------|----------------|----------------|----------------|
 ---------------------------------------------------------------------------

INTRO (see above)
| F | Dm | Bbmaj7 | G |
We met as [Dm/F]soul mates on [G7]Parris [C]Island,
We [C/E]left as [Dm/F]inmates from [G7]an a[C]sylum
And we were [Em]sharp,[Am] as sharp as [Em]knives[Am]
And we were [Dm]so gung-ho to [Dm/C]lay down our liv[G/B]es[F/A] [G]
We came in [Dm/F]spastic like [G7]tameless [C]horses,
We [C/E]left in [Dm/F]plastic as [G7]numbered [C]corpses
And we learned [Em]fast[Am] to travel [Em]light, [Am]
Our arms were [Dm]heavy but our [Dm/C]bellies were [Bb]tight
INTRO 2 (see above)
| Bb | G | D | G7 |
We had no [Dm/F]home front, we [G7]had no [C]soft soap
They [C/E]sent us [Dm/F]Playboy, they [G7]gave us [C]Bob Hope
We dug in [Em]dee[Am]p and shot on [Em]sight[Am]
And prayed to [Dm]Jesus Christ with [Dm/C]all of our mig[G/B]ht[F/A] [G]
We had no [Dm/F]cameras to [G7]shoot the [C]landscape
We [C/E]passed the [Dm/F]hash pipe and [G7]played our [C]Doors tapes
And it was [Em]dark[Am], so dark at [Em]night[Am]
And we held [Dm]on to each other, like [Dm/C]brother to brother,
We [Bb]promised our [F/A]mothers we'd [Gm]write
[C/Bb]And we would [F/A]all go [Bb]down to[C]gether,[C/Bb]
We said we'd [F/A]all go [Bb]dow[G7/B]n to[C]gether,[C/Bb]
Yes, we would [F/A]all go [Bb]dow[Dm/A]n to[(G7)]gether
INTRO 3 (see above)
| G | F | Dm | G7 |
Remember [Dm/F]Charlie, re[G7]member [C]Baker,
They [C/E]left their [Dm/F]childhood on [G7]every [C]acre
And who was [Em]wrong[Am]? And who was [Em]right?[Am]
It didn't [Dm]matter in the [Dm/C]thick of the [(Bb)]fight
INTRO 4 (see above)
| Bb | G |
[Am]We [G/B]held the [C]day [Dm]in the [E]palm [Dm/F]of our [E]hand[E-9] [E] [E7]
[Am]They [G/B]ruled the [C]night [Dm]and the [E]night [Dm/F]seemed to [G]last as long as
[Dm/F]Six weeks on [G7]Parris [C]Island
We [C/E]held the [Dm/F]coastline, they [G7]held the [C]highlands,
And they were [Em]sharp,[Am] as sharp as [Em]knives,[Am]
They heard the [Dm]hum of motors, they [Dm/C]counted the rotors
And [Bb]waited for u[F/A]s to ar[Gm]rive
[C/Bb]And we would [F/A]all go [Bb]down to[C]gether,[C/Bb]
We said we'd [F/A]all go [Bb]dow[G7/B]n to[C]gether,[C/Bb]
Yes, we would [F/A]all go [Bb]dow[Dm/A]n to[(G)]gether
INTRO 5 (see above)
| G | F |
OUTRO (see above)
| Dm | Bbmaj7 | G | F |
(repeat and fade)

Important: The song above is NOT stored on the Chordie server. The original song is hosted at www.guitaretab.com. Chordie works as a search engine and provides on-the-fly formatting. Chordie does not index songs against artists'/composers' will. To remove this song please click here.

Text color:
Chord color:
Chord grids: 
Font size:    
Page size: 

Am Bb Bbmaj7 C C/E D Dm Dm/A Dm/C Dm/F E E-9 E7 Em F G G/B G7 G7/B Gm
Rate #3 of 13 versions

Login - add to songbook

SHARE PAGE  




You need to log in to post comments