Guitar Tabs, Chords and Lyrics
Server problems seems to be fixed. Chordie has been experiencing problems with songs disappearing. These issues now seems to be fixed, but still verifying the fix. If you find anything strange, please email admin@chordie.com.


White Witch  Birds of Tokyo

 
 -----------------------------------------------------------------------------

WHITE WITCH - Birds Of Tokyo
 
 -----------------------------------------------------------------------------

Tabbed by: Refugeesus
Email: bxy959@hotmail.com or www.myspace.com/sinistertones
Tuning: Standard
Again, some notes...
My riffs are more like chord progressions, and for the most part
highly unnecessary (except 5, it's cool).
D* is a C slid up 2 frets
Enjoy!
Lyrics:
[C#5]She don't owe you nothing
[C#5]She don't have to listen to [A5]anything you [F#5]say
[C#5]I warned you two, maybe three or more
[C#5]I warned you to be bite your tongue and [A5]save it for the [F#5]grave
[E5]Come on
[E]Kick the [Am]cat out and [C]hang up your [E]high heels
Show me [Am]magic and [C]spells unk[E]nown
Am C D* E Am C
With your potions show me some good love my white witch
[C#5]She won't cost you a penny
[C#5]She won't cost you any [A5]hair of a dog or it's [F#5]tail
[C#5]So don't you try to be funny, no
[C#5]Don't you try to do any [A5]thing to change her [F#5]ways yeah
[C#5]You wont do that no not again
[C#5]You wont do that 'cause this crazy [A5]girl is sure to [F#5]say
A little [A5]charm to rule the [F#5]day
[E5]Come on
[E]Kick the [Am]cat out and [C]hang up your [E]high heels
Show me [Am]magic and [C]spells unk[E]nown
Am C D* E Am C
With your potions show me some good love my white witch
RIFF 5 (then same combo, but with power chords!! and minus the C5)
C#5 E5II A5 F#5
Get back, that same old look in your eye
Get back, [E5]'cause i'm not [B5]into [C5]it[C#5]
C#5 E5II A5 F#5
Get back, that same old look in your eye
Get back, [E5]'cause i'm not [B5]into [C5]it[C#5]
RIFF 1 (intro)
 
 e|-4-4--4-4-4--7-7-4-4-0-0-4-4--4-4--4-4-4--7-7-4-4-0-0-4-4-----------|
 B|-5-5--5-5-5--5-5-5-5-5-5-5-5--5-5--5-5-5--5-5-5-5-5-5-5-5-----------|
 G|-6-6--6-6-6--4-4-4-4-4-4-4-4--6-6--6-6-6--4-4-4-4-4-4-4-4--2-2------|
 D|-6-6--6-6-6--6-6-6-6-6-6-6-6--6-6--6-6-6--6-6-6-6-6-6-6-6--2-2-4-4--|
 A|-4-4--4-4-4--4-4-4-4-4-4-4-4--4-4--4-4-4--4-4-4-4-4-4-4-4--0-0-4-4--|
 E|---------------------------------------------------------------2-2--|

RIFF 2 (verse)
 
 e|------------------------|
 B|------------------------|
 G|-6-6------------2-2-----|
 D|-6-6-and more---2-2-4-4-|
 A|-4-4------------0-0-4-4-|
 E|--------------------2-2-|

RIFF 3 (chorus)
E A C D*
 
 e|-0---0---0---X--| *D on 3rd bar only
 B|-0---1---1-/-3*-|
 G|-1---2---0-/-0--|
 D|-2---2---2-/-4--|
 A|-2---0---3-/-5--|
 E|-0--------------|

RIFF 4 ("Get Back!!")
 
 e|-----------------|
 B|-----------------|
 G|-6-4-------4-5-6-|
 D|-6-2-2-4-2-4-5-6-|
 A|-4---0-4-2-2-3-4-|
 E|-------2-0-------|

RIFF 5 (Pure rock)
 
 e|---------------------------------------------|
 B|---------------------------------------------|
 G|---------------------------------------------|
 D|----------2--------------------2-----2-2-5-5-|
 A|-4--4-4-4---0-----2/3/4--4-4-4---0---2-2-3-3-|
 E|--------------2-0------------------2-0-0-----|

=============================================================================

Important: The song above is NOT stored on the Chordie server. The original song is hosted at www.guitaretab.com. Chordie works as a search engine and provides on-the-fly formatting. Chordie does not index songs against artists'/composers' will. To remove this song please click here.

Text color:
Chord color:
Chord grids: 
Font size:    
Page size: 

A5 Am B5 C C#5 C5 E E5 F#5
Rate #2 of 3 versions

Jango Player

Login - add to songbook

SHARE PAGE  



You need to log in to post comments