Guitar Tabs, Chords and Lyrics
Server problems seems to be fixed. Chordie has been experiencing problems with songs disappearing. These issues now seems to be fixed, but still verifying the fix. If you find anything strange, please email admin@chordie.com.


Murmurs  Birds of Tokyo

Birds Of Tokyo - Birds Of Tokyo
ChuckNorris_58
Standard Tuning
Intro: 0:04
 
 e|-----------------------------------------------------------------------------|
 B|----------7---------------7-----------------5-----------------3--------------|
 G|------7-------7---7---7-------7---7/5---5-------5---5/3---3-------3---3/7----|
 D|----0---0---0---0---0---0---0---0-----0---0---0---0-----0---0---0---0--------| x6
 A|-----------------------------------------------------------------------------|
 E|-----------------------------------------------------------------------------|

Pre-Verse: 0:41
 
 e|----------5---------------5-----------------3-----------------2--------------|
 B|------7-------7---7---7-------7---7/5---5-------5---5/3---3-------3---3/7----|
 G|----7---7---7---7---7---7---7---7-----5---5---5---5-----3---3---3---3--------|
 D|-----------------------------------------------------------------------------| x2
 A|-----------------------------------------------------------------------------|
 E|-----------------------------------------------------------------------------|

Verse: 0:54
 
 e|-----------------------------------------------------------------------------|
 B|----------7---------------7-----------------5-----------------3--------------|
 G|------7-------7---7---7-------7---7/5---5-------5---5/3---3-------3---3/7----|
 D|----0---0---0---0---0---0---0---0-----0---0---0---0-----0---0---0---0--------| x4
 A|-----------------------------------------------------------------------------|
 E|-----------------------------------------------------------------------------|

Chorus: 1:18
We [Gm]are on our [Bb]own pulling [Gm]teeth out for the [Bb]fun of it
[D]I can't believe i[C]t,[Gm] you showed [D]courage the brave dream o[C]f[Gm]
I [D]live to regret yo[C]u,[Gm] the [D]murmur inside my [C]he[Gm]art
Verse: 1:56
 
 e|-----------------------------------------------------------------------------|
 B|----------7---------------7-----------------5-----------------3--------------|
 G|------7-------7---7---7-------7---7/5---5-------5---5/3---3-------3---3/7----|
 D|----0---0---0---0---0---0---0---0-----0---0---0---0-----0---0---0---0--------| x6
 A|-----------------------------------------------------------------------------|
 E|-----------------------------------------------------------------------------|

Solo: 2:33
Chorus: 2:57
We [Gm]are on our [Bb]own pulling [Gm]teeth out for the [Bb]fun of it
[D]I can't believe i[C]t,[Gm] you showed [D]courage the brave dream o[C]f[Gm]
I [D]live to regret yo[C]u,[Gm] the [D]murmur inside my [C]he[Gm]art
[D]Just as I'm sinking [C]do[Gm]wn
You [D]reach in and pull me [C]ou[Gm]t
[D]Safe from the rising [C]ti[Gm]de
[D]Safe from the world out[C]si[Gm]de
Outro: 4:00 (Very Faint)
 
 e|------------------|
 B|-----7----5--3----|
 G|------------------|
 D|----0----0--0-----| x2
 A|------------------|
 E|------------------|


Important: The song above is NOT stored on the Chordie server. The original song is hosted at www.guitaretab.com. Chordie works as a search engine and provides on-the-fly formatting. Chordie does not index songs against artists'/composers' will. To remove this song please click here.

Text color:
Chord color:
Chord grids: 
Font size:    
Page size: 

Bb C D Gm
Rate #1 of 3 versions

Jango Player

Login - add to songbook

SHARE PAGE  




You need to log in to post comments