Guitar Tabs, Chords and Lyrics
Major upgrade!! After one year development the new version of Chordie is now online! Please give feedback.


Thick n' Thin  The Black Crowes

Song: Thick 'N' Thin
Tabbed by Messiah01
I just learned this, but I dont got the lead part down. When I play the lead, I just
in C with a Chuck Berry feel. Here it is, enjoy
 
 E|-----------------|
 B|-----------------|
 G|-----------------|
 D|-5-5-7-5-7-5-7-5-| Intro/Verse, Chris plays this
 A|-3-3-3-3-3-3-3-3-|
 E|-----------------|

[C5]  
 
 E|------------------------|
 B|------------------------|
 G|-10-10-10-10--9-7-5-2-5-| Pre-Chorus Repeat 3x
 D|-10-10-10-10--9-7-5-2-5-|
 A|-8--8--8--8---7-5-3-0-3-|
 E|------------------------|

[F5] [F5] [F5] [F5] [E5] [D5] [C5] [A5] [C5]  
 
 E|-------------------------|
 B|-------------------------|
 G|3------------------------| Chorus Repeat 2x
 D|3-----3----5-5-7-5-7-5-7-|
 A|1-----3----3-3-3-3-3-3-3-|
 E|------1------------------|

[Bb5] [F5] [C5]  
Back to Intro/Verse x1
Pre-Chorus x3
Chorus x4
 
 E|------------------------------------------------------------------|
 B|------------------------------------------------------------------|
 G|------------------------------------------------------------------|

D|-Just make sounds like a chainsaw by sliding up and down the neck-| Bridge
 
 A|-or just solo in C at this point for 4 measures-------------------|
 E|------------------------------------------------------------------|

4x
Pre-Chorus x2
Bridge x6
Pre-Chorus x1
Chorus x4
Enojy, Rock On Amoricans

Important: The song above is NOT stored on the Chordie server. The original song is hosted at www.guitaretab.com. Chordie works as a search engine and provides on-the-fly formatting. Chordie does not index songs against artists'/composers' will. To remove this song please click here.

Text color:
Chord color:
Chord grids: 
Font size:    
Page size: 

A5 Bb5 C5 D5 E5 F5
Rate #1 of 1 versions

Jango Player

Login - add to songbook

SHARE PAGE  




You need to log in to post comments