Guitar Tabs, Chords and Lyrics
Major upgrade!! After one year development the new version of Chordie is now online! Please give feedback.


Death Panorama  The Black Dahlia Murder

As recorded by The Black Dahlia Murder
(From the 2009 Album DEFLORATE)
Transcribed by Matthew LaPierre
Gtr I (C G C F A D) - 'Brian Eschbach'
Gtr II (C G C F A D) - 'Ryan Knight'
Gtr III (C G C F A D) - 'Solo Harmony'
Q=226
[4/4] Gtr I
 
 |-3-| |-3-| |-3-|

[E] [E] [E] [E] [E] [E] [E] [E] [E] [E] [E] [E] [E] [E] [E] [E] [E] [E] [E] [E] [E] [E] [E] [E] [E] [E] [E]  
 
 |-----------------|-----------------|-----------------------|
 |-----------------|-----------------|-----------------------|
 |-----------------|-----------------|-----------------------|
 |-----------------|-----------------|-----------------------|
 |---8---5---7---7-|---4---5---5---4-|-----------------------|
 |-0---0---0---5---|-5---5---3---3---|-8-5-2-2-2-2-2-2-2-2-2-|

|
| Gtr II
 
 | |-3-| |-3-| |-3-|

| E E E E E E E E E E E E E E E E E E E E E E E E E E E
 
 |-----------------|-----------------|-----------------------|
 |-----------------|-----------------|-----------------------|
 |-----------------|-----------------|-----------------------|
 |-----------------|-----------------|-----------------------|
 |---8---5---7---7-|---4---5---5---4-|-----------------------|
 |-0---0---0---5---|-5---5---3---3---|-8-5-2-2-2-2-2-2-2-2-2-|
 |-3-| |-3-| |-3-|

[E] [E] [E] [E] [E] [E] [E] [E] [E] [E] [E] [E] [E] [E] [E] [E] [E] [E] [E] [E] [E] [E] [E] [E] [E] [E] [E]  
 
 |-----------------|-----------------|-----------------------|
 |-----------------|-----------------|-----------------------|
 |-----------------|---------------3-|-2---------------------|
 |-----------------|-----------------|---3-------------------|
 |---8---5---7---7-|---4---5---5-----|-----4-4-4-4-4-4-4-4-4-|
 |-0---0---0---5---|-5---5---3---3---|-----------------------|

|
 
 | |-3-| |-3-| |-3-|

| E E E E E E E E E E E E E E E E E E E E E E E E E E E
 
 |-----------------|-----------------|-----------------------|
 |-----------------|-----------------|-----------------------|
 |-----------------|-----------------|-----------------------|
 |-----------------|---------------5-|-3---------------------|
 |---8---5---7---7-|---4---5---5-----|---4-------------------|
 |-0---0---0---5---|-5---5---3---3---|-----7-7-7-7-7-7-7-7-7-|

[6/4] H +Q H. E E E E E E E E E E E E
 
 |--------------------|--------------------------|
 |--------------------|--------------------------|
 |-7-----(7)--2-------|--------------------------|
 |--------------------|----------3-5---5-7---5---|
 |-5-----(5)--0-------|------------------------4-|
 |--------------------|-0-7-11-0-----0-----0-----|

|
| W. E E E E E E E E E E E E
 
 |--------------------|--------------------------|
 |--------------------|--------------------------|
 |--------------------|--------------------------|
 |--------------------|--------------------------|
 |-3------------------|----------5-7---7-8---7---|
 |-3------------------|-0-3--7-0-----0-----0---7-|

[4/4]  
 
 |-3-| |-3-| |-3-|

[E] [E] [E] [E] [E] [E] [E] [E] [E] [E] [E] [E] [E] [E] [E] [E] [E] [E] [E] [E] [E] [E] [E] [E] [E] [E] [E]  
 
 |-----------------|-----------------|-----------------------|
 |-----------------|-----------------|-----------------------|
 |-----------------|-----------------|-----------------------|
 |-----------------|-----------------|-----------------------|
 |---8---5---7---7-|---4---5---5---4-|-----------------------|
 |-0---0---0---5---|-5---5---3---3---|-8-5-2-2-2-2-2-2-2-2-2-|

|
 
 | |-3-| |-3-| |-3-|

| E E E E E E E E E E E E E E E E E E E E E E E E E E E
 
 |-----------------|-----------------|-----------------------|
 |-----------------|-----------------|-----------------------|
 |-----------------|-----------------|-----------------------|
 |-----------------|-----------------|-----------------------|
 |---8---5---7---7-|---4---5---5---4-|-----------------------|
 |-0---0---0---5---|-5---5---3---3---|-8-5-2-2-2-2-2-2-2-2-2-|
 |-3-| |-3-| |-3-|

[E] [E] [E] [E] [E] [E] [E] [E] [E] [E] [E] [E] [E] [E] [E] [E] [E] [E] [E] [E] [E] [E] [E] [E] [E] [E] [E]  
 
 |-----------------|-----------------|-----------------------|
 |-----------------|-----------------|-----------------------|
 |-----------------|---------------3-|-2---------------------|
 |-----------------|-----------------|---3-------------------|
 |---8---5---7---7-|---4---5---5-----|-----4-4-4-4-4-4-4-4-4-|
 |-0---0---0---5---|-5---5---3---3---|-----------------------|

|
 
 | |-3-| |-3-| |-3-|

| E E E E E E E E E E E E E E E E E E E E E E E E E E E
 
 |-----------------|-----------------|-----------------------|
 |-----------------|-----------------|-----------------------|
 |-----------------|-----------------|-----------------------|
 |-----------------|---------------5-|-3---------------------|
 |---8---5---7---7-|---4---5---5-----|---4-------------------|
 |-0---0---0---5---|-5---5---3---3---|-----7-7-7-7-7-7-7-7-7-|
 |-3-| |-3-| |-3-|

[E] [E] [E] [E] [E] [E] [E] [E] [E] [E] [E] [E] [E] [E] [E] [E] [E] [E] [E] [E] [E] [E] [E] [E] [E] [E] [E]  
 
 |-----------------|-----------------|-----------------------|
 |-----------------|-----------------|-----------------------|
 |-----------------|-----------------|-----------------------|
 |-----------------|-----------------|-----------------------|
 |---8---5---7---7-|---4---5---5---4-|-----------------------|
 |-0---0---0---5---|-5---5---3---3---|-8-5-2-2-2-2-2-2-2-2-2-|

|
 
 | |-3-| |-3-| |-3-|

| E E E E E E E E E E E E E E E E E E E E E E E E E E E
 
 |-----------------|-----------------|-----------------------|
 |-----------------|-----------------|-----------------------|
 |-----------------|-----------------|-----------------------|
 |-----------------|-----------------|-----------------------|
 |---8---5---7---7-|---4---5---5---4-|-----------------------|
 |-0---0---0---5---|-5---5---3---3---|-8-5-2-2-2-2-2-2-2-2-2-|

PM-|
E E E E E E E E E E E E E E E E E E Q Q Q
 
 |-----------------|-----------------|--------------|
 |-----------------|-----------------|--------------|
 |-----------------|---------------3-|-2---2--------|
 |-----------------|-----------------|---3-2--2--3--|
 |---8---5---7---7-|---4---5---5-----|-----0--2--3--|
 |-0---0---0---5---|-5---5---3---3---|--------2--3--|

|
| PM-|
| E E E E E E E E E E E E E E E E E E Q Q Q
 
 |-----------------|-----------------|--------------|
 |-----------------|-----------------|--------------|
 |-----------------|---------------3-|-2---2--------|
 |-----------------|-----------------|---3-2--2--3--|
 |---8---5---7---7-|---4---5---5-----|-----0--2--3--|
 |-0---0---0---5---|-5---5---3---3---|--------2--3--|

Q=224
 
 PM--------------| PM PM--------------| PM

[E] [E] [E] [E] [E] [E] [E] [E] [E] [E] [E] [E] [E] [E] [E] [E] [E] [E] [E] [E] [E] [E] [E] [E]  
 
 |-----------------|-----------------|-----------------|
 |-----------------|-----------------|-----------------|
 |-----------------|-----------------|-----------------|
 |-----------------|-----------------|-----------------|
 |-----------------|---------4-------|-----------4---4-|
 |-8-5-5-5-5-5-5-5-|-5-8-5-8---7-7-7-|-7-7-7-7-7---7---|

|
 
 | PM--------------| PM PM--------------| PM

| E E E E E E E E E E E E E E E E E E E E E E E E
 
 |-----------------|-----------------|-----------------|
 |-----------------|-----------------|-----------------|
 |-----------------|-----------------|-----------------|
 |-----------------|-----------------|-----------------|
 |-----------------|---------4-------|-----------4---4-|
 |-8-5-5-5-5-5-5-5-|-5-8-5-8---7-7-7-|-7-7-7-7-7---7---|
 PM--------------| PM PM--------------| PM

[E] [E] [E] [E] [E] [E] [E] [E] [E] [E] [E] [E] [E] [E] [E] [E] [E] [E] [E] [E] [E] [E] [E] [E]  
 
 |-----------------|-----------------|-----------------|
 |-----------------|-----------------|-----------------|
 |-----------------|-----------------|-----------------|
 |-----------------|-----------------|-----------------|
 |-5---------------|---5---5-5-------|-----------5---5-|
 |---0-0-0-0-0-0-0-|-0---0-----0-0-0-|-0-0-0-0-0---0---|

|
 
 | PM--------------| PM PM--------------| PM

| E E E E E E E E E E E E E E E E E E E E E E E E
 
 |-----------------|-----------------|-----------------|
 |-----------------|-----------------|-----------------|
 |-----------------|-----------------|-----------------|
 |-----------------|-----------------|-----------------|
 |-5---------------|---5---5-5-------|-----------5---5-|
 |---0-0-0-0-0-0-0-|-0---0-----0-0-0-|-0-0-0-0-0---0---|
 PM--------------| PM PM--------------| PM

[E] [E] [E] [E] [E] [E] [E] [E] [E] [E] [E] [E] [E] [E] [E] [E] [E] [E] [E] [E] [E] [E] [E] [E]  
 
 |-----------------|-----------------|-----------------|
 |-----------------|-----------------|-----------------|
 |-----------------|-----------------|-----------------|
 |-----------------|-----------------|-----------------|
 |-----------------|---------4-------|-----------0---0-|
 |-8-5-5-5-5-5-5-5-|-5-8-5-8---2-2-2-|-2-2-2-2-2---3---|

|
 
 | PM--------------| PM PM--------------| PM

| E E E E E E E E E E E E E E E E E E E E E E E E
 
 |-----------------|-----------------|-----------------|
 |-----------------|-----------------|-----------------|
 |-----------------|-----------------|-----------------|
 |-----------------|-----------------|-----------------|
 |-----------------|---------4-------|-----------0---0-|
 |-8-5-5-5-5-5-5-5-|-5-8-5-8---2-2-2-|-2-2-2-2-2---3---|
 PM------| PM PM----------------| PM PM PM

[E] [E] [E] [E] [E] [E] [E] [E] [E] [E] [E] [E] [E] [E] [E] [E] [E] [E] [E] [E] [E] [E] [E] [E]  
 
 |-----------------|-----------------|-----------------|
 |-----------------|-----------------|-----------------|
 |-----------------|-----------------|-----------------|
 |-----------------|-----------------|-----------------|
 |-5-----------5---|-5---8---5-------|-----5---5---8---|
 |---0-0-0-0-0---0-|---0---0---0-0-0-|-0-0---0---0---0-|

|
 
 | PM------| PM PM----------------| PM PM PM

| E E E E E E E E E E E E E E E E E E E E E E E E
 
 |-----------------|-----------------|-----------------|
 |-----------------|-----------------|-----------------|
 |-----------------|-----------------|-----------------|
 |-----------------|-----------------|-----------------|
 |-5-----------5---|-5---8---5-------|-----5---5---8---|
 |---0-0-0-0-0---0-|---0---0---0-0-0-|-0-0---0---0---0-|
 PM--------------| PM PM--------------| PM

[E] [E] [E] [E] [E] [E] [E] [E] [E] [E] [E] [E] [E] [E] [E] [E] [E] [E] [E] [E] [E] [E] [E] [E]  
 
 |-----------------|-----------------|-----------------|
 |-----------------|-----------------|-----------------|
 |-----------------|-----------------|-----------------|
 |-----------------|-----------------|-----------------|
 |-----------------|---------4-------|-----------4---4-|
 |-8-5-5-5-5-5-5-5-|-5-8-5-8---7-7-7-|-7-7-7-7-7---7---|

|
 
 | PM--------------| PM PM--------------| PM

| E E E E E E E E E E E E E E E E E E E E E E E E
 
 |-----------------|-----------------|-----------------|
 |-----------------|-----------------|-----------------|
 |-----------------|-----------------|-----------------|
 |-----------------|-----------------|-----------------|
 |-----------------|---------4-------|-----------4---4-|
 |-8-5-5-5-5-5-5-5-|-5-8-5-8---7-7-7-|-7-7-7-7-7---7---|
 PM--------------| PM PM--------------| PM

[E] [E] [E] [E] [E] [E] [E] [E] [E] [E] [E] [E] [E] [E] [E] [E] [E] [E] [E] [E] [E] [E] [E] [E]  
 
 |-----------------|-----------------|-----------------|
 |-----------------|-----------------|-----------------|
 |-----------------|-----------------|-----------------|
 |-----------------|-----------------|-----------------|
 |-5---------------|---5---5-5-------|-----------5---5-|
 |---0-0-0-0-0-0-0-|-0---0-----0-0-0-|-0-0-0-0-0---0---|

|
 
 | PM--------------| PM PM--------------| PM

| E E E E E E E E E E E E E E E E E E E E E E E E
 
 |-----------------|-----------------|-----------------|
 |-----------------|-----------------|-----------------|
 |-----------------|-----------------|-----------------|
 |-----------------|-----------------|-----------------|
 |-5---------------|---5---5-5-------|-----------5---5-|
 |---0-0-0-0-0-0-0-|-0---0-----0-0-0-|-0-0-0-0-0---0---|
 PM--------------| PM PM--|

E E E E E E E E E E E E Q. E +Q Q. E E E
 
 |-----------------|----------------|--------------------|
 |-----------------|----------------|--------------------|
 |-----------------|----------------|--------------------|
 |-----------------|----------------|------0----0--------|
 |-----------------|--------------1-|-(1)-------1-1-1----|
 |-8-5-5-5-5-5-5-5-|-5-8-5-8-1------|------0----1-1-1----|

|
 
 | PM--------------| PM PM--|

| E E E E E E E E E E E E Q. E +Q Q. E E E
 
 |-----------------|----------------|--------------------|
 |-----------------|----------------|--------------------|
 |-----------------|----------------|--------------------|
 |-----------------|----------------|------0----0--------|
 |-----------------|--------------1-|-(1)-------1-1-1----|
 |-8-5-5-5-5-5-5-5-|-5-8-5-8-1------|------0----1-1-1----|

Guitar Solo
Gtrs I, II
[E] [E] [E] [E] [E] [E] [E] [E] [E] [E] [E] [E] [E] [E] [E] [E] [E] [E] [E] [E] [E] [E] [E] [E]  
 
 |----------------------|-------------------------|---------------------|
 |----------------------|-------------------------|---------------------|
 |----------------------|-------------------------|---------------------|
 |----------------------|-------------------------|---------------------|
 |----8-----5----7----7-|-----4-----5-----5-----4-|-----1-----4---0---1-|
 |-0-----0----0----5----|--5-----5-----3-----3----|--2-----2----2---2---|

|
| ~~~
| E E E E E E E E E E E E E E E E E E H.
 
 |------10--------------|-13-13\12-12----------12-|-15-18-17------------|
 |-8/10----10\8----8/11-|----------------11-14----|---------------------|
 |--------------10------|-------------12----------|---------------------|
 |----------------------|-------------------------|---------------------|
 |----------------------|-------------------------|---------------------|
 |----------------------|-------------------------|---------------------|
 PM-------|

E E E E E E E E E E E E E E E E E E Q. E E E
 
 |----------------------|------------------------|-------------------|
 |----------------------|------------------------|-------------------|
 |----------------------|------------------------|-------------------|
 |----------------------|------------------------|-------------------|
 |-------8---5---7----7-|------4---5-----5-----4-|-----1--0----0-0-0-|
 |--0------0---0----5---|---5----5----3-----3----|--2-----2----2-2-2-|

|
| ~~ ~~~
| H. Q +H E E E E E E H.
 
 |----------------------|------------------------|-------------------|
 |-15b17r==========15---|-(15)-------------------|-------------------|
 |----------------------|------------15-12-12-12-|-12-14-14----------|
 |----------------------|------------------------|-------------------|
 |----------------------|------------------------|-------------------|
 |----------------------|------------------------|-------------------|

|
| Gtr III
| ~~~
| H. Q +H E E E E E E H.
 
 |-15--------------13---|-(13)-------------------|-------------------|
 |----------------------|------------15-11-11-11-|-11-14-14----------|
 |----------------------|------------------------|-------------------|
 |----------------------|------------------------|-------------------|
 |----------------------|------------------------|-------------------|
 |----------------------|------------------------|-------------------|

Gtr I
 
 |-3-| |-3-| |-3-|

[E] [E] [E] [E] [E] [E] [E] [E] [E] [E] [E] [E] [E] [E] [E] [E] [E] [E] [E] [E] [E] [E] [E] [E] [E] [E] [E]  
 
 |-----------------|-----------------|-----------------------|
 |-----------------|-----------------|-----------------------|
 |-----------------|-----------------|-----------------------|
 |-----------------|-----------------|-----------------------|
 |---8---5---7---7-|---4---5---5---4-|-----------------------|
 |-0---0---0---5---|-5---5---3---3---|-8-5-2-2-2-2-2-2-2-2-2-|

|
| Gtr II
 
 | |-3-| |-3-| |-3-|

| E E E E E E E E E E E E E E E E E E E E E E E E E E E
 
 |-----------------|-----------------|-----------------------|
 |-----------------|-----------------|-----------------------|
 |-----------------|-----------------|-----------------------|
 |-----------------|-----------------|-----------------------|
 |---8---5---7---7-|---4---5---5---4-|-----------------------|
 |-0---0---0---5---|-5---5---3---3---|-8-5-2-2-2-2-2-2-2-2-2-|
 |-3-| |-3-| |-3-|

[E] [E] [E] [E] [E] [E] [E] [E] [E] [E] [E] [E] [E] [E] [E] [E] [E] [E] [E] [E] [E] [E] [E] [E] [E] [E] [E]  
 
 |-----------------|-----------------|-----------------------|
 |-----------------|-----------------|-----------------------|
 |-----------------|---------------3-|-2---------------------|
 |-----------------|-----------------|---3-------------------|
 |---8---5---7---7-|---4---5---5-----|-----4-4-4-4-4-4-4-4-4-|
 |-0---0---0---5---|-5---5---3---3---|-----------------------|

|
 
 | |-3-| |-3-| |-3-|

| E E E E E E E E E E E E E E E E E E E E E E E E E E E
 
 |-----------------|-----------------|-----------------------|
 |-----------------|-----------------|-----------------------|
 |-----------------|-----------------|-----------------------|
 |-----------------|---------------5-|-3---------------------|
 |---8---5---7---7-|---4---5---5-----|---4-------------------|
 |-0---0---0---5---|-5---5---3---3---|-----7-7-7-7-7-7-7-7-7-|
 |-3-| |-3-| |-3-|

[E] [E] [E] [E] [E] [E] [E] [E] [E] [E] [E] [E] [E] [E] [E] [E] [E] [E] [E] [E] [E] [E] [E] [E] [E] [E] [E]  
 
 |-----------------|-----------------|-----------------------|
 |-----------------|-----------------|-----------------------|
 |-----------------|-----------------|-----------------------|
 |-----------------|-----------------|-----------------------|
 |---8---5---7---7-|---4---5---5---4-|-----------------------|
 |-0---0---0---5---|-5---5---3---3---|-8-5-2-2-2-2-2-2-2-2-2-|

|
 
 | |-3-| |-3-| |-3-|

| E E E E E E E E E E E E E E E E E E E E E E E E E E E
 
 |-----------------|-----------------|-----------------------|
 |-----------------|-----------------|-----------------------|
 |-----------------|-----------------|-----------------------|
 |-----------------|-----------------|-----------------------|
 |---8---5---7---7-|---4---5---5---4-|-----------------------|
 |-0---0---0---5---|-5---5---3---3---|-8-5-2-2-2-2-2-2-2-2-2-|
 |-3-| |-3-| |-3-|

[E] [E] [E] [E] [E] [E] [E] [E] [E] [E] [E] [E] [E] [E] [E] [E] [E] [E] [E] [E] [E] [E] [E] [E] [E] [E] [E]  
 
 |-----------------|-----------------|-----------------------|
 |-----------------|-----------------|-----------------------|
 |-----------------|---------------3-|-2---------------------|
 |-----------------|-----------------|---3-------------------|
 |---8---5---7---7-|---4---5---5-----|-----4-4-4-4-4-4-4-4-4-|
 |-0---0---0---5---|-5---5---3---3---|-----------------------|

|
 
 | |-3-| |-3-| |-3-|

| E E E E E E E E E E E E E E E E E E E E E E E E E E E
 
 |-----------------|-----------------|-----------------------|
 |-----------------|-----------------|-----------------------|
 |-----------------|-----------------|-----------------------|
 |-----------------|---------------5-|-3---------------------|
 |---8---5---7---7-|---4---5---5-----|---4-------------------|
 |-0---0---0---5---|-5---5---3---3---|-----7-7-7-7-7-7-7-7-7-|
 PM--------------| PM PM--------------| PM

[E] [E] [E] [E] [E] [E] [E] [E] [E] [E] [E] [E] [E] [E] [E] [E] [E] [E] [E] [E] [E] [E] [E] [E]  
 
 |-----------------|-----------------|--------------------|
 |-----------------|-----------------|--------------------|
 |-----------------|-----------------|--------------------|
 |-----------------|-----------------|--------------------|
 |-----------------|---------4-------|-----------4---4----|
 |-8-5-5-5-5-5-5-5-|-5-8-5-8---7-7-7-|-7-7-7-7-7---7------|

|
 
 | PM--------------| PM PM--------------| PM

| E E E E E E E E E E E E E E E E E E E E E E E E
 
 |-----------------|-----------------|--------------------|
 |-----------------|-----------------|--------------------|
 |-----------------|-----------------|--------------------|
 |-----------------|-----------------|--------------------|
 |-----------------|---------4-------|-----------4---4----|
 |-8-5-5-5-5-5-5-5-|-5-8-5-8---7-7-7-|-7-7-7-7-7---7------|
 PM--------------| PM PM--------------| PM

[E] [E] [E] [E] [E] [E] [E] [E] [E] [E] [E] [E] [E] [E] [E] [E] [E] [E] [E] [E] [E] [E] [E] [E]  
 
 |-----------------|-----------------|-----------------|
 |-----------------|-----------------|-----------------|
 |-----------------|-----------------|-----------------|
 |-----------------|-----------------|-----------------|
 |-5---------------|---5---5-5-------|-----------5---5-|
 |---0-0-0-0-0-0-0-|-0---0-----0-0-0-|-0-0-0-0-0---0---|

|
 
 | PM--------------| PM PM--------------| PM

| E E E E E E E E E E E E E E E E E E E E E E E E
 
 |-----------------|-----------------|-----------------|
 |-----------------|-----------------|-----------------|
 |-----------------|-----------------|-----------------|
 |-----------------|-----------------|-----------------|
 |-5---------------|---5---5-5-------|-----------5---5-|
 |---0-0-0-0-0-0-0-|-0---0-----0-0-0-|-0-0-0-0-0---0---|
 PM--------------| PM PM--------------| PM

[E] [E] [E] [E] [E] [E] [E] [E] [E] [E] [E] [E] [E] [E] [E] [E] [E] [E] [E] [E] [E] [E] [E] [E]  
 
 |-----------------|-----------------|-----------------|
 |-----------------|-----------------|-----------------|
 |-----------------|-----------------|-----------------|
 |-----------------|-----------------|-----------------|
 |-----------------|---------4-------|-----------0---0-|
 |-8-5-5-5-5-5-5-5-|-5-8-5-8---2-2-2-|-2-2-2-2-2---3---|

|
 
 | PM--------------| PM PM--------------| PM

| E E E E E E E E E E E E E E E E E E E E E E E E
 
 |-----------------|-----------------|-----------------|
 |-----------------|-----------------|-----------------|
 |-----------------|-----------------|-----------------|
 |-----------------|-----------------|-----------------|
 |-----------------|---------4-------|-----------0---0-|
 |-8-5-5-5-5-5-5-5-|-5-8-5-8---2-2-2-|-2-2-2-2-2---3---|
 PM------| PM PM PM PM--------| PM PM PM

[E] [E] [E] [E] [E] [E] [E] [E] [E] [E] [E] [E] [E] [E] [E] [E] [E] [E] [E] [E] [E] [E] [E] [E]  
 
 |-----------------|-----------------|-----------------|
 |-----------------|-----------------|-----------------|
 |-----------------|-----------------|-----------------|
 |-----------------|-----------------|-----------------|
 |-5-----------5---|-5---8---5-------|-----5---5---8---|
 |---0-0-0-0-0---0-|---0---0---0-0-0-|-0-0---0---0---0-|

|
 
 | PM------| PM PM PM PM--------| PM PM PM

| E E E E E E E E E E E E E E E E E E E E E E E E
 
 |-----------------|-----------------|-----------------|
 |-----------------|-----------------|-----------------|
 |-----------------|-----------------|-----------------|
 |-----------------|-----------------|-----------------|
 |-5-----------5---|-5---8---5-------|-----5---5---8---|
 |---0-0-0-0-0---0-|---0---0---0-0-0-|-0-0---0---0---0-|
 PM--------------| PM PM--------------| PM

[E] [E] [E] [E] [E] [E] [E] [E] [E] [E] [E] [E] [E] [E] [E] [E] [E] [E] [E] [E] [E] [E] [E] [E]  
 
 |-----------------|-----------------|-----------------|
 |-----------------|-----------------|-----------------|
 |-----------------|-----------------|-----------------|
 |-----------------|-----------------|-----------------|
 |-----------------|---------4-------|-----------4---4-|
 |-8-5-5-5-5-5-5-5-|-5-8-5-8---7-7-7-|-7-7-7-7-7---7---|

|
 
 | PM--------------| PM PM--------------| PM

| E E E E E E E E E E E E E E E E E E E E E E E E
 
 |-----------------|-----------------|-----------------|
 |-----------------|-----------------|-----------------|
 |-----------------|-----------------|-----------------|
 |-----------------|-----------------|-----------------|
 |-----------------|---------4-------|-----------4---4-|
 |-8-5-5-5-5-5-5-5-|-5-8-5-8---7-7-7-|-7-7-7-7-7---7---|
 PM--------------| PM PM--------------| PM

[E] [E] [E] [E] [E] [E] [E] [E] [E] [E] [E] [E] [E] [E] [E] [E] [E] [E] [E] [E] [E] [E] [E] [E]  
 
 |-----------------|-----------------|-----------------|
 |-----------------|-----------------|-----------------|
 |-----------------|-----------------|-----------------|
 |-----------------|-----------------|-----------------|
 |-5---------------|---5---5-5-------|-----------5---5-|
 |---0-0-0-0-0-0-0-|-0---0-----0-0-0-|-0-0-0-0-0---0---|

|
 
 | PM--------------| PM PM--------------| PM

| E E E E E E E E E E E E E E E E E E E E E E E E
 
 |-----------------|-----------------|-----------------|
 |-----------------|-----------------|-----------------|
 |-----------------|-----------------|-----------------|
 |-----------------|-----------------|-----------------|
 |-5---------------|---5---5-5-------|-----------5---5-|
 |---0-0-0-0-0-0-0-|-0---0-----0-0-0-|-0-0-0-0-0---0---|
 PM--------------| PM

E E E E E E E E E E E E H +W
 
 |-----------------|--------------|--------|
 |-----------------|--------------|--------|
 |-----------------|--------------|--------|
 |-----------------|---------7----|-(7)----|
 |-----------------|---------7----|-(7)----|
 |-8-5-5-5-5-5-5-5-|-5-8-5-8-7----|-(7)----|

|
 
 | PM--------------| PM

| E E E E E E E E E E E E H +W
 
 |-----------------|--------------|--------|
 |-----------------|--------------|--------|
 |-----------------|--------------|--------|
 |-----------------|---------7----|-(7)----|
 |-----------------|---------7----|-(7)----|
 |-8-5-5-5-5-5-5-5-|-5-8-5-8-7----|-(7)----|
 PM--------------------|

Q Q Q Q Q Q E Q E E E Q E E E E
 
 |-------------|--------------|----------------|
 |-------------|--------------|----------------|
 |-------------|--------------|----------------|
 |----------6--|--------------|----------------|
 |-7--3--2--4--|-3--2--0----0-|-0-0----0-0-0-0-|
 |-7--3--2-----|-3--2--0----0-|-0-0----0-0-0-0-|

|
 
 | PM--------------------|

| Q Q Q Q Q Q E Q E E E Q E E E E
 
 |-------------|--------------|----------------|
 |-------------|--------------|----------------|
 |-------------|--------------|----------------|
 |----------6--|--------------|----------------|
 |-7--3--2--4--|-3--2--0----0-|-0-0----0-0-0-0-|
 |-7--3--2-----|-3--2--0----0-|-0-0----0-0-0-0-|

+W +W +W
 
 |------------|------------|--------|
 |------------|------------|--------|
 |------------|------------|--------|
 |------------|------------|--------|
 |-(0)--------|-(0)--------|-(0)----|
 |-(0)--------|-(0)--------|-(0)----|

|
| +W +W +W
 
 |------------|------------|--------|
 |------------|------------|--------|
 |------------|------------|--------|
 |------------|------------|--------|
 |-(0)--------|-(0)--------|-(0)----|
 |-(0)--------|-(0)--------|-(0)----|

+W +W +W
 
 |------------|------------|--------*|
 |------------|------------|--------*|
 |------------|------------|--------*|
 |------------|------------|--------*|
 |-(0)--------|-(0)--------|-(0)----*|
 |-(0)--------|-(0)--------|-(0)----*|

|
| +W +W +W
 
 |------------|------------|--------*|
 |------------|------------|--------*|
 |------------|------------|--------*|
 |------------|------------|--------*|
 |-(0)--------|-(0)--------|-(0)----*|
 |-(0)--------|-(0)--------|-(0)----*|
 --------------------------------------------------------------------------------

Duration Legend
 
 ---------------
 W - whole; H - half; Q - quarter; E - 8th; S - 16th; T - 32nd; X - 64th; a - acciaccatura

+ - note tied to previous; . - note dotted; .. - note double dotted
Uncapitalized letters represent notes that are staccato (1/2 duration)
Irregular groupings are notated above the duration line
Duration letters will always appear directly above the note/fret number it represents the
duration for. Duration letters with no fret number below them represent rests. Multi-
bar rests are notated in the form Wxn, where n is the number of bars to rest for. Low
melody durations appear below the staff
Tablature Legend
 
 ----------------

h - hammer-on
p - pull-off
b - bend
pb - pre-bend
r - bend release (if no number after the r, then release immediately)
/\ - slide into or out of (from/to "nowhere")
s - legato slide
S - shift slide
- natural harmonic
(n) - artificial harmonic
n(n) - tapped harmonic
~ - vibrato
tr - trill
T - tap
TP - trem. picking
PM - palm muting
\n/ - tremolo bar dip; n = amount to dip
\n - tremolo bar down
n/ - tremolo bar up
/n\ - tremolo bar inverted dip
= - hold bend; also acts as connecting device for hammers/pulls
- volume swell (louder/softer)
x - on rhythm slash represents muted slash
o - on rhythm slash represents single note slash
Misc Legend
 
 -----------

| - bar
|| - double bar
||o - repeat start
o|| - repeat end
*| - double bar (ending)
: - bar (freetime)
$ - Segno
& - Coda
Tempo markers - = BPM(8/16=s8/s16), where s8 = swing 8ths, s16 = swing 16ths

Important: The song above is NOT stored on the Chordie server. The original song is hosted at www.guitaretab.com. Chordie works as a search engine and provides on-the-fly formatting. Chordie does not index songs against artists'/composers' will. To remove this song please click here.

Text color:
Chord color:
Chord grids: 
Font size:    
Page size: 

E
Rate #1 of 2 versions

Jango Player

Login - add to songbook

SHARE PAGE  




You need to log in to post comments