Guitar Tabs, Chords and Lyrics
Major upgrade!! After one year development the new version of Chordie is now online! Please give feedback.


Denounced, Disgraced  The Black Dahlia Murder

Denounced, Disgraced
Black Dahlia Murder
Deflorate
Transcribed by Seth Sanders (livetolieanotherday@hotmail.com)
Gtr I (C F Bb Eb G C) - 'Rhythm'
Gtr II (C F Bb Eb G C) - 'Rhythm II'
Gtr III (C F Bb Eb G C) - 'Lead'
Gtr IV (C F Bb Eb G C) - 'Lead II'
Intro
Q=207
[G#5]  
[3/4] Gtr I
 
 PM----| ~~~~~~~ PM--------|

E S S E S +S E S +S E S S E E E E
 
 |-----------------------|----------------|
 |-----------------------|----------------|
 |-----------------------|----------------|
 |-----------------------|----------------|
 |-6---------------7-(7)S|=6--------6-7-6-|
 |-4-4-4-4-4-(4)S6-------|-4--4-4-4-4-6-4-|

|
| Gtr II
| PM--|
| q H Q. E E E
 
 |-----------------------|----------------|
 |-----------------------|----------------|
 |-----------------------|----------------|
 |-----------------------|----------------|
 |-6---------------------|----------6-7-6-|
 |-4---------------------|----------4-6-4-|

S S S S S S S S S S S S S S S S S S S S S S S S
 
 |---------------------------|-----------------------------|
 |---------------------------|-----------------------------|
 |---------------------------|-----------------------------|
 |---------------------------|-----------------------------|
 |-/7--7-7-7-7-7-6-6-6-6-6-6-|--4--4-4-4-4-4-7-7--7--7-7-7-|
 |---------------------------|-----------------------------|

|
| PM|
| H. +H +E S S
 
 |---------------------------|-----------------------------|
 |---------------------------|-----------------------------|
 |---------------------------|-----------------------------|
 |--2------------------------|-(2)---------------(2)-------|
 |--2------------------------|-(2)---------------(2)-------|
 |--0------------------------|-(0)---------------(0)---0-0-|
 PM| PM---------------------|

Q. Q +E Q. Q. E E E E E E S S E S S E S S E
 
 |-----------------|------------|-------------|--------------------|
 |-8----11---(11)\-|------11----|-------------|--------------------|
 |-x-----x---------|-8-----8----|-------------|--------------------|
 |-5-----8----(8)\-|-x-----x----|-9-----9-----|--------------------|
 |-----------------|-6-----6----|-7-----7-----|--------------------|
 |-----------------|------------|-7-7-7-7-7-0-|-/9-9-9-9-9-9-9-9-7-|

|
 
 | PM| PM---------------------|

| Q. Q. Q. Q. E E E E E E S S E S S E S S E
 
 |-----------------|------------|-------------|--------------------|
 |-----------------|------------|-------------|--------------------|
 |-9----12---------|------------|-------------|--------------------|
 |-x-----x---------|-9-----5----|-6-----6-----|--------------------|
 |-7----10---------|-x-----x----|-x-----x-----|--------------------|
 |-----------------|-7-----3----|-4-4-4-4-4-4-|-/6-6-6-6-6-6-6-6-3-|
 PM----| ~~~~~~~ PM--------|

E S S E S +S E S +S E S S E E E E
 
 |-----------------------|---------------|
 |-----------------------|---------------|
 |-----------------------|---------------|
 |-----------------------|---------------|
 |-6---------------7-(7)S|=6-------6-7-6-|
 |-4-4-4-4-4-(4)S6-------|-4-4-4-4-4-6-4-|

|
 
 | PM----| ~~~~~~~ PM--------|

| E S S E S +S E S +S E S S E E E E
 
 |-----------------------|---------------|
 |-----------------------|---------------|
 |-----------------------|---------------|
 |-----------------------|---------------|
 |-6---------------4-(4)S|=6-------6-7-6-|
 |-4-4-4-4-4-(4)S3-------|-4-0-0-0-0-0-0-|

S S S S S S S S S S S S S S S S S S S S S S S S
 
 |--------------------------|--------------------------|
 |--------------------------|--------------------------|
 |--------------------------|--------------------------|
 |--------------------------|--------------------------|
 |-/7-7-7-7-7-7-6-6-6-6-6-6-|-4-4-4-4-4-4-7-7-7-7-7-7--|
 |--------------------------|--------------------------|

|
| S S S S S S S S S S S S S S S S S S S S S S S S
 
 |--------------------------|--------------------------|
 |--------------------------|--------------------------|
 |--------------------------|--------------------------|
 |--------------------------|--------------------------|
 |--------------------------|--------------------------|
 |--9-9-9-9-9-9-7-7-7-7-7-7-|-6-6-6-6-6-6-0-0-0-0-0-0--|

PM----|
H. +H. H. +Q. S S E E
 
 |---------|----------------|---------|---------------||
 |---------|----------------|---------|---------------||
 |---------|----------------|-8-------|-(8)-----------||
 |-9-------|-(9)------------|-x-------|---------------||
 |-7-------|-(7)------------|-6-------|-(6)---6-6-6-6-||
 |-7-------|-(7)------------|-6-------|-(6)---6-6-6-6-||

|
| PM----|
| H. Q. Q +E H. +Q. S S E E
 
 |---------|----------------|---------|---------------||
 |-9-------|----------------|---------|---------------||
 |-x-------|--9----12--(12)S|=8-------|-(8)-----------||
 |-6-------|--x-----x-------|-x-------|---------------||
 |---------|--7----10--(10)S|=6-------|-(6)---6-6-6-6-||
 |---------|----------------|-6-------|-(6)---6-6-6-6-||

Verse I
[6/4] Gtr I
 
 PM--------------| PM--| PM--|

[E] [E] [E] [E] [E] [E] [E] [E] [E] [E] [E] [E] [E] [E] [E] [E] [E] [E] [E] [E] [E] [E] [E] [E]  
 
 |-------------------------|-------------------------|
 |-------------------------|-------------------------|
 |-9-9-9-------------------|-9-9-9-------8-8-8-------|
 |-6-6-6-------------------|-6-6-6-------6-6-6-------|
 |-7-7-7-------------------|-7-7-7-------6-6-6-------|
 |-------0-0-0-0-0-0-0-0-0-|-------0-0-0-6-6-6-0-0-0-|

|
| Gtr II
 
 | PM--------------| PM--| PM--|

| E E E E E E E E E E E E E E E E E E E E E E E E
 
 |-------------------------|-------------------------|
 |-------------------------|-------------------------|
 |-9-9-9-------------------|-9-9-9-------8-8-8-------|
 |-6-6-6-------------------|-6-6-6-------6-6-6-------|
 |-7-7-7-------------------|-7-7-7-------6-6-6-------|
 |-------0-0-0-0-0-0-0-0-0-|-------0-0-0-6-6-6-0-0-0-|
 PM--------------| PM--|

E E E E E E E E E E E E E E E E E E S S S S S S S S S S S S
 
 |-------------------------|---------------------------------------|
 |-------------------------|---------------------------------------|
 |-------------------------|---------------------------------------|
 |-6-6-6-------------------|-6-6-6-------6-6-6-6-6-6-9-9-9-9-9-9---|
 |-7-7-7-------------------|-7-7-7---------------------------------|
 |-------4-4-4-4-4-4-4-4-4-|-------4-4-4---------------------------|

|
 
 | PM--------------| PM--| PM--------|

| E E E E E E E E E E E E E E E E E E E E E S S S S S S
 
 |-------------------------|---------------------------------------|
 |-------------------------|---------------------------------------|
 |-9-9-9-------------------|-9-9-9-------8---8---8-----------------|
 |-x-x-x-------------------|-x-x-x-------6---6---6-----------------|
 |-7-7-7-------------------|-7-7-7-------6---6---6-----------------|
 |-------7-7-7-7-7-7-7-7-7-|-------7-7-7-6---6---6---7-7-7-7-7-7---|
 PM--------------| PM--| PM--|

S S S S S S E E E E E E E E E S S S S S S E E E S S S S S S E E E
 
 |-------------------------------|-------------------------------------|
 |-------------------------------|-------------------------------------|
 |-------------------------------|-------------------------------------|
 |-9-9-9-9-9-9-------------------|-8-8-8-8-8-8-------5-5-5-5-5-5-------|
 |-------------------------------|-------------------------------------|
 |-------------0-0-0-0-0-0-0-0-0-|-------------0-0-0-------------0-0-0-|

|
 
 | PM--------------| PM--| PM--|

| E E E E E E E E E E E E E E E E E E E E E E E E
 
 |-------------------------------|-------------------------------------|
 |-------------------------------|-------------------------------------|
 |-9---9---9---------------------|-9---9---9---------8---8---8---------|
 |-6---6---6---------------------|-6---6---6---------6---6---6---------|
 |-7---7---7---------------------|-7---7---7---------6---6---6---------|
 |-------------0-0-0-0-0-0-0-0-0-|-------------0-0-0-6---6---6---0-0-0-|
 PM--------------| PM--| PM------|

S S S S S S E E E E E E E E E S S S S S S E E E S S S S S S E E E
 
 |-------------------------------|----------------------------------------------||
 |-------------------------------|----------------------------------------------||
 |-------------------------------|----------------------------------------------||
 |-6-6-6-6-6-6-------------------|-6-6-6-6-6-6-------5-5-5-5-5-5----------------||
 |-------------------------------|----------------------------------------------||
 |-------------4-4-4-4-4-4-4-4-4-|-------------4-4-4-------------4---4---4------||

|
 
 | PM--------------| PM--| PM--------|

| E E E E E E E E E E E E E E E E E E E E E S S S S S S
 
 |-------------------------------|----------------------------------------------||
 |-------------------------------|----------------------------------------------||
 |-9---9---9---------------------|-9---9---9---------8---8---8------------------||
 |-x---x---x---------------------|-x---x---x---------6---6---6------------------||
 |-7---7---7---------------------|-7---7---7---------6---6---6------------------||
 |-------------7-7-7-7-7-7-7-7-7-|-------------7-7-7-6---6---6---7-7-7-7-7-7----||

Pre-Chorus
 
 PM------------| PM-|

E +S E. q q E E E E E E +S E. q q E E E S S S S
 
 ||---------------------------|-------------------------------|
 ||o--------------------------|-------------------------------|
 ||---------------------------|-------------------------------|
 ||---------------------------|-------------------------------|
 ||o-6-(6)s7--6--6--2-2-2-2-2-|-6-(6)s7--6--6-----------------|
 ||--4-(4)s6--0--0--0-0-0-0-0-|-4-(4)s6--0--0--0h4h9p=3h4p3h4-|

|
 
 | PM------------| PM---------------|

| E +S E. q q E E E E E E +S E. q q E E E E E
 
 ||---------------------------|-------------------------------|
 ||o--------------------------|-------------------------------|
 ||---------------------------|-------------------------------|
 ||---------------------------|-------------------------------|
 ||o-6-(6)s7--6--6--2-2-2-2-2-|-6-(6)s7--6--6------9-11---7---|
 ||--4-(4)s6--0--0--0-0-0-0-0-|-4-(4)s6--0--0--0-0-9--9---9---|

1.
 
 PM------------| PM-|

E +S E. q q E E E E E E +S E. q q E E E S S S S
 
 |--------------------------|---------------------------------||
 |--------------------------|--------------------------------o||
 |--------------------------|---------------------------------||
 |--------------------------|---------------------------------||
 |-6-(6)s7--6--6--2-2-2-2-2-|-6-(6)s7--6--6------------------o||
 |-4-(4)s6--0--0--0-0-0-0-0-|-4-(4)s6--0--0--0h4h=9p=3h4p3h4--||

|
 
 | PM------------| PM------|

| E +S E. q q E E E E E E +S E. q q E E Q.
 
 |--------------------------|---------------------------------||
 |--------------------------|--------------------------------o||
 |--------------------------|---------------------------------||
 |--------------------------|--------------------11\----------||
 |-6-(6)s7--6--6--2-2-2-2-2-|-6-(6)s7--6--6-------9\---------o||
 |-4-(4)s6--0--0--0-0-0-0-0-|-4-(4)s6--0--0--0-0--9\----------||

2.
 
 PM------------| PM-------| PM

E +S E. q q E E E E E E +S E. q e E E E S S E E
 
 |--------------------------|-----------------------------||
 |--------------------------|-----------------------------||
 |--------------------------|---------------------0h1p0-6-||
 |--------------------------|-------------------2---------||
 |-6-(6)s7--6--6--2-2-2-2-2-|-6-(6)s7--6--2-1-4-----------||
 |-4-(4)s6--0--0--0-0-0-0-0-|-4-(4)s6--0--0---------------||

|
 
 | PM------------| PM-------| PM

| E +S E. q q E E E E E E +S E. q e E E E S S E E
 
 |--------------------------|-----------------------------||
 |--------------------------|-----------------------------||
 |--------------------------|---------------------4h6---9-||
 |--------------------------|-----------------------------||
 |-6-(6)s7--6--6--2-2-2-2-2-|-6-(6)s7--6--2-----4-----7---||
 |-4-(4)s6--0--0--0-0-0-0-0-|-4-(4)s6--0--0-3-6-----------||

Pre-Verse
[3/4]  
 
 PM----| PM----------------------| PM PM PM

E S S E S +S E E E S S E E S S E E S S E S +S E E E E E E E E
 
 |-------------------|-----------------|-------------------|-------------|
 |-------------------|-----------------|-------------------|-------------|
 |-------------------|-----------------|-------------------|-------------|
 |-------------------|-----------------|-------------------|-------------|
 |-----------------7-|-----------------|-----------------7-|---7---6---7-|
 |-4-4-4-4-4-(4)S6---|-0-0-0-0-0-0-0-0-|-4-4-4-4-4-(4)S6---|-0---0---0---|

|
 
 | PM----| PM----------------------| PM PM PM

| E S S E S +S E E E S S E E S S E E S S E S +S E E E E E E E E
 
 |-------------------|-----------------|-------------------|-------------|
 |-------------------|-----------------|-------------------|-------------|
 |-------------------|-----------------|-------------------|-------------|
 |-------------------|-----------------|-------------------|-------------|
 |-------------------|-----------------|-------------------|-------------|
 |-4-4-4-4-4-(4)S6h9-|-0-0-0-0-0-0-0-0-|-4-4-4-4-4-(4)S6h9-|-0-9-0-7-0-9-|
 PM----| PM----------------------| PM PM

E S S E S +S E E E S S E E S S E E S S E S +S E E E E E S S E E
 
 |-------------------|-----------------|-------------------|----------------||
 |-------------------|-----------------|-------------------|----------------||
 |-------------------|-----------------|-------------------|----------------||
 |-------------------|-----------------|-------------------|-------------8--||
 |-----------------7-|-----------------|-----------------7-|---7---6h7p6----||
 |-4-4-4-4-4-(4)S6---|-0-0-0-0-0-0-0-0-|-4-4-4-4-4-(4)S6---|-0---4----------||

|
 
 | PM----| PM----------------------| PM PM

| E S S E S +S E E E S S E E S S E E S S E S +S E E E E E S S E E
 
 |-------------------|-----------------|-------------------|----------------||
 |-------------------|-----------------|-------------------|----------------||
 |-------------------|-----------------|-------------------|----------------||
 |-------------------|-----------------|-------------------|-------------5--||
 |-------------------|-----------------|-------------------|---4---1h4p1----||
 |-4-4-4-4-4-(4)S6h9-|-0-0-0-0-0-0-0-0-|-4-4-4-4-4-(4)S6h9-|-0---0----------||

Verse II
[6/4] Gtr I
 
 PM--------------| PM--| PM--|

[E] [E] [E] [E] [E] [E] [E] [E] [E] [E] [E] [E] [E] [E] [E] [E] [E] [E] [E] [E] [E] [E] [E] [E]  
 
 ||--------------------------|-------------------------|
 ||o-------------------------|-------------------------|
 ||--9-9-9-------------------|-9-9-9-------8-8-8-------|
 ||--6-6-6-------------------|-6-6-6-------6-6-6-------|
 ||o-7-7-7-------------------|-7-7-7-------6-6-6-------|
 ||--------0-0-0-0-0-0-0-0-0-|-------0-0-0-6-6-6-0-0-0-|

|
| Gtr II
 
 | PM--------------| PM--| PM--|

| E E E E E E E E E E E E E E E E E E E E E E E E
 
 ||--------------------------|-------------------------|
 ||o-------------------------|-------------------------|
 ||--9-9-9-------------------|-9-9-9-------8-8-8-------|
 ||--6-6-6-------------------|-6-6-6-------6-6-6-------|
 ||o-7-7-7-------------------|-7-7-7-------6-6-6-------|
 ||--------0-0-0-0-0-0-0-0-0-|-------0-0-0-6-6-6-0-0-0-|
 PM--------------| PM--|

E E E E E E E E E E E E E E E E E E S S S S S S S S S S S S
 
 |-------------------------|--------------------------------------|
 |-------------------------|--------------------------------------|
 |-------------------------|--------------------------------------|
 |-6-6-6-------------------|-6-6-6-------6-6-6-6-6-6-9-9-9-9-9-9--|
 |-7-7-7-------------------|-7-7-7--------------------------------|
 |-------4-4-4-4-4-4-4-4-4-|-------4-4-4--------------------------|

|
 
 | PM--------------| PM--| PM--------|

| E E E E E E E E E E E E E E E E E E E E E S S S S S S
 
 |-------------------------|--------------------------------------|
 |-------------------------|--------------------------------------|
 |-9-9-9-------------------|-9-9-9-------8---8---8----------------|
 |-x-x-x-------------------|-x-x-x-------6---6---6----------------|
 |-7-7-7-------------------|-7-7-7-------6---6---6----------------|
 |-------7-7-7-7-7-7-7-7-7-|-------7-7-7-6---6---6---7-7-7-7-7-7--|
 PM--------------| PM--| PM--|

S S S S S S E E E E E E E E E S S S S S S E E E S S S S S S E E E
 
 |-------------------------------|-------------------------------------|
 |-------------------------------|-------------------------------------|
 |-------------------------------|-------------------------------------|
 |-9-9-9-9-9-9-------------------|-8-8-8-8-8-8-------5-5-5-5-5-5-------|
 |-------------------------------|-------------------------------------|
 |-------------0-0-0-0-0-0-0-0-0-|-------------0-0-0-------------0-0-0-|

|
 
 | PM--------------| PM--| PM--|

| E E E E E E E E E E E E E E E E E E E E E E E E
 
 |-------------------------------|-------------------------------------|
 |-------------------------------|-------------------------------------|
 |-9---9---9---------------------|-9---9---9---------8---8---8---------|
 |-6---6---6---------------------|-6---6---6---------6---6---6---------|
 |-7---7---7---------------------|-7---7---7---------6---6---6---------|
 |-------------0-0-0-0-0-0-0-0-0-|-------------0-0-0-6---6---6---0-0-0-|
 PM--------------| PM--| PM------|

S S S S S S E E E E E E E E E S S S S S S E E E S S S S S S E E E
 
 |-------------------------------|-----------------------------------------------||
 |-------------------------------|----------------------------------------------o||
 |-------------------------------|-----------------------------------------------||
 |-6-6-6-6-6-6-------------------|-6-6-6-6-6-6-------5-5-5-5-5-5-----------------||
 |-------------------------------|----------------------------------------------o||
 |-------------4-4-4-4-4-4-4-4-4-|-------------4-4-4-------------4---4---4-------||

|
 
 | PM--------------| PM--| PM--------|

| E E E E E E E E E E E E E E E E E E E E E S S S S S S
 
 |-------------------------------|-----------------------------------------------||
 |-------------------------------|----------------------------------------------o||
 |-9---9---9---------------------|-9---9---9---------8---8---8-------------------||
 |-x---x---x---------------------|-x---x---x---------6---6---6-------------------||
 |-7---7---7---------------------|-7---7---7---------6---6---6------------------o||
 |-------------7-7-7-7-7-7-7-7-7-|-------------7-7-7-6---6---6---7-7-7-7-7-7-----||

Pre-Chorus
 
 PM----| TP PM----| TP

E +S E. q q E H E +S E. q q E H
 
 ||------------------------|-----------------------|
 ||o-----------------------|-----------------------|
 ||------------------------|-----------------------|
 ||------------------------|-----------------------|
 ||o-6-(6)s7--6--6--2------|-6-(6)s7--6--6--2------|
 ||--4-(4)s6--0--0--0-3----|-4-(4)s6--0--0--0-6----|

|
 
 | PM----| TP PM----| TP

| E +S E. q q E H E +S E. q q E H
 
 ||------------------------|-----------------------|
 ||o-----------------------|-----------------------|
 ||------------------------|-----------------------|
 ||------------------------|-----------------------|
 ||o-6-(6)s7--6--6--2------|-6-(6)s7--6--6--2------|
 ||--4-(4)s6--0--0--0-6----|-4-(4)s6--0--0--0-9----|

1.
PM----| TP PM-|
E +S E. q q E H E +S E. q q E E E S S S S
 
 |-----------------------|-------------------------------||
 |-----------------------|------------------------------o||
 |-----------------------|-------------------------------||
 |-----------------------|-------------------------------||
 |-6-(6)s7--6--6--2------|-6-(6)s7--6--6--------6h7p6h7-o||
 |-4-(4)s6--0--0--0-3----|-4-(4)s6--0--0--0h6h7----------||

|
| PM----| TP PM-|
| E +S E. q q E H E +S E. q q E E E S S S S
 
 |-----------------------|-------------------------------||
 |-----------------------|------------------------------o||
 |-----------------------|-------------------------------||
 |------------------5----|-------------------------------||
 |-6-(6)s7--6--6--2------|-6-(6)s7--6--6--------2h4p2h4-o||
 |-4-(4)s6--0--0--0------|-4-(4)s6--0--0--0h3h4----------||

2.
[E] [E] [E] [E] [E] [E] [E] [E] [E] [E] [E] [E]  
 
 |----------------------------0--|
 |--------------------8p====4----|
 |----------------4h6------------|
 |--------------8----------------|
 |---4h6h7p6p4-------------------|
 |-7-----------------------------|

|
| T T
| E E E E E E E E E E E E
 
 |-------------------------------|
 |-------------------------------|
 |-------------15p8h9-0(24)h4h6--|
 |-------6-----------------------|
 |-6-7h9---9p7-------------------|
 |-------------------------------|

Tap the 24th without fretting a note.
Chorus
[3/4]  
 
 PM----| ~~~~~~~ PM--------|

E S S E S +S E S +S E S S E E E E
 
 |-----------------------|---------------|
 |-----------------------|---------------|
 |-----------------------|---------------|
 |-----------------------|---------------|
 |-6---------------7-(7)S|=6-------6-7-6-|
 |-4-4-4-4-4-(4)S6-------|-4-4-4-4-4-6-4-|

|
 
 | PM----| ~~~~~~~ PM--------|

| E S S E S +S E S +S E S S E E E E
 
 |-----------------------|---------------|
 |-----------------------|---------------|
 |-----------------------|---------------|
 |-----------------------|---------------|
 |-6---------------7-(7)S|=6-------6-7-6-|
 |-4-4-4-4-4-(4)S6-------|-4-4-4-4-0-0-0-|

S S S S S S S S S S S S S S S S S S S S S S S S
 
 |--------------------------|-------------------------|
 |--------------------------|-------------------------|
 |--------------------------|-------------------------|
 |--------------------------|-------------------------|
 |-/7-7-7-7-7-7-6-6-6-6-6-6-|-4-4-4-4-4-4-7-7-7-7-7-7-|
 |--------------------------|-------------------------|

|
| S S S S S S S S S S S S S S S S S S S S S S S S
 
 |--------------------------|-------------------------|
 |--------------------------|-------------------------|
 |--------------------------|-------------------------|
 |--------------------------|-------------------------|
 |-/4-4-4-4-4-4-1-1-1-1-1-1-|-------------4-4-4-4-4-4-|
 |--------------------------|-2-2-2-2-2-2-------------|
 PM| PM---------------------|

Q. Q +E Q. Q. E E E E E E S S E S S E S S E
 
 |-----------------|------------|-------------|--------------------|
 |-8----11---(11)\-|------11----|-------------|--------------------|
 |-x-----x---------|-8-----8----|-------------|--------------------|
 |-5-----8----(8)\-|-x-----x----|-9-----9-----|--------------------|
 |-----------------|-6-----6----|-7-----7-----|--------------------|
 |-----------------|------------|-7-7-7-7-7-0-|-/9-9-9-9-9-9-9-9-7-|

|
 
 | PM| PM---------------------|

| Q. Q. Q. Q. E E E E E E S S E S S E S S E
 
 |-----------------|------------|-------------|--------------------|
 |-----------------|------------|-------------|--------------------|
 |-9----12---------|------------|-------------|--------------------|
 |-x-----x---------|-9-----5----|-6-----6-----|--------------------|
 |-7----10---------|-x-----x----|-x-----x-----|--------------------|
 |-----------------|-7-----3----|-4-4-4-4-4-4-|-/6-6-6-6-6-6-6-6-3-|
 PM----| ~~~~~~~ PM--------|

E S S E S +S E S +S E S S E E E E
 
 |-----------------------|---------------|
 |-----------------------|---------------|
 |-----------------------|---------------|
 |-----------------------|---------------|
 |-6---------------7-(7)S|=6-------6-7-6-|
 |-4-4-4-4-4-(4)S6-------|-4-4-4-4-4-6-4-|

|
 
 | PM----| ~~~~~~~ PM--------|

| E S S E S +S E S +S E S S E E E E
 
 |-----------------------|---------------|
 |-----------------------|---------------|
 |-----------------------|---------------|
 |-----------------------|---------------|
 |-6---------------7-(7)S|=6-------6-7-6-|
 |-4-4-4-4-4-(4)S6-------|-4-4-4-4-0-0-0-|

S S S S S S S S S S S S S S S S S S S S S S S S
 
 |--------------------------|--------------------------|
 |--------------------------|--------------------------|
 |--------------------------|--------------------------|
 |--------------------------|--------------------------|
 |-/7-7-7-7-7-7-6-6-6-6-6-6-|-4-4-4-4-4-4-7-7-7-7-7-7--|
 |--------------------------|--------------------------|

|
| S S S S S S S S S S S S S S S S S S S S S S S S
 
 |--------------------------|--------------------------|
 |--------------------------|--------------------------|
 |--------------------------|-------------6-6-6-6-6-6--|
 |--6-6-6-6-6-6-------------|--------------------------|
 |--------------------------|-7-7-7-7-7-7--------------|
 |--------------6-6-6-6-6-6-|--------------------------|
 PM------------|

E E E E E E S S E E S S E E E E E E E E E E E E E E
 
 |-------------|-----------------|----------------|---------------||
 |-------------|-----------------|----------------|---------------||
 |-------------|-----------------|----------------|---------------||
 |-9-----9-----|-----------------|----------------|---------------||
 |-7-----7-----|-----------------|----------------|---------------||
 |-7-0-0-7-0-0-|-4-4-4-4-4-4-4-0-|-0h6h=7p0h=7h=9p|=0h6h=7p0h4h6--||

|
 
 | PM------------|

| E E E E E E S S E E S S E E E E E E E E E E E E E E
 
 |-------------|-----------------|----------------|---------------||
 |-------------|-----------------|----------------|---------------||
 |-------------|-----------------|----------------|---------------||
 |-6-----6-----|-----------------|----------------|---------------||
 |-x-----x-----|-----------------|----------------|---------------||
 |-4-0-0-4-0-0-|-7-7-7-7-7-7-4-0-|-0h9h11p0h11h12p|=0h9h11p0h7h9--||

Bridge
[6/4]  
 
 PM--------| PM--------| TP

E E E E S S E Q. S S S S S S E E E E S S E E E E Q.
 
 ||---------------------------------|---------------------------|
 ||o--------------------------------|---------------------------|
 ||---------------------------------|---------------------------|
 ||---------------------------------|---------------------------|
 ||o-6-------------x----7-7-7-7-7-7-|-6-------------------------|
 ||--4-0-4-0-0-0-4-x----------------|-4-0-4-0-0-0-3-4h6h7-3-----|

|
 
 | PM--------| PM--------| TP

| E E E E S S E Q. S S S S S S E E E E S S E E E E Q.
 
 ||---------------------------------|---------------------------|
 ||o--------------------------------|---------------------------|
 ||---------------------------------|---------------------------|
 ||---------------------------------|---------------------------|
 ||o-6-------------x----------------|-6-------------------------|
 ||--4-0-4-4-4-4-4-x----4-4-4-4-4-4-|-4-0-4-4-4-4-3-0h3h4-0-----|
 PM--------| PM--------|

E E E E S S E Q. S S S S S S E E E E S S E Q. Q.
 
 |--------------------------------|-------------------------|
 |--------------------------------|-------------------------|
 |--------------------------------|--------------------/13--|
 |--------------------------------|----------------------x--|
 |-6-------------x----7-7-7-7-7-7-|-6------------------/11--|
 |-4-0-4-0-0-0-4-x----------------|-4-0-4-0-0-0-3-x---------|

|
 
 | PM--------| PM--------|

| E E E E S S E Q. S S S S S S E E E E S S E Q. Q.
 
 |--------------------------------|-------------------------|
 |--------------------------------|----------------------5--|
 |--------------------------------|----------------------4--|
 |--------------------------------|----------------------2--|
 |-6-------------x----------------|-6--------------------2--|
 |-4-0-4-4-4-4-4-x----4-4-4-4-4-4-|-4-0-4-4-4-4-3-x------0--|

[E] [E] [E] [E] [E] [E] [E] [E] [E] [E] [E] [E]  
 
 |------------------------------||
 |-----------------------------o||
 |------------------------------||
 |------------------------------||
 |-----------------------------o||

|-0h9h11p0h11h12p0h9h11p0h7h9--||
|
| E E E E E E E E E E E E
 
 |------------------------------||
 |-----------------------------o||
 |------------------------------||
 |------------------------------||
 |-----------------------------o||

|-0h6h=7p0h=7h=9p0h6h=7p0h4h6--||
[E] [E] [E] [E] [E] [E] [E] [E] [E] [E] [E] [E]  
 
 |------------------------------||
 |------------------------------||
 |------------------------------||
 |------------------------------||
 |------------------------------||

|-0h7h9p0h9h11p0h11h12p0h15h16-||
|
| E E E E E E E E E E E E
 
 |------------------------------||
 |------------------------------||
 |------------------------------||
 |------------------------------||
 |------------------------------||

|-0h4h6p0h6h=7p0h=7h=9p0h18h19-||
Guitar Solo I
[3/4] Gtrs I, II
 
 PM---| PM---|

[E] [E] [E] [E] [E] [E] [E] [E] [E] [E] [E] [E]  
 
 |-----------------------------------|----------------------------------|
 |-----------------------------------|----------------------------------|
 |-----------------------------------|----------------------------------|
 |-----------------------------------|----------------------------------|
 |---1h===2----------------4p===2----|--1h===2----------------4p===2----|
 |--------------0----0---------------|-------------1----1---------------|

|
| Gtr III
 
 | |--------6---------| |---3---| |--------6---------| |---3---|

| E E E E E E E E E E E E E E E E E E
 
 |-----------------------------------|----------------------------------|
 |-/16p12-----------------12h16p==12S|=17p14-----------------14h17p==14S|
 |----------13---------13------------|---------15p12------15------------|
 |-------------13p10-----------------|---------------13-----------------|
 |-----------------------------------|----------------------------------|
 |-----------------------------------|----------------------------------|

Don't worry about this bend.
 
 PM---| PM---|

[E] [E] [E] [E] [E] [E] [E] [E] [E] [E] [E] [+E]  
 
 |----------------------------------|-------------------------------------------|
 |----------------------------------|-------------------------------------------|
 |----------------------------------|-------------------------------------------|
 |----------------------------------|------------------------4b4.5----(4)-------|
 |--1h===2----------------4p===2----|--1h===2----------------4b4.5----(4)-------|
 |-------------2----2---------------|-------------3----3------------------------|

|
 
 | |--------6---------| |---3---| |--------6---------| |------3------|

| E E E E E E E E E E E E E E E E E E
 
 |----------------------------------|-------------------------------------------|
 |-20p17-----------------17h20p==17S|=23p20-----------------20h====23p====20----|
 |---------18p15------18------------|---------21p18------21---------------------|
 |---------------14-----------------|---------------17--------------------------|
 |----------------------------------|-------------------------------------------|
 |----------------------------------|-------------------------------------------|

PM-| PM|
[E] [E] [E] [E] [E] [E] [E] [E] [E] [E] [E] [E]  
 
 |------------------------|---------------|
 |------------------------|---------------|
 |------------------------|---------------|
 |------------------------|---------------|
 |--1h====2----------4p=2-|---1h2-----4p2-|
 |------------4--4--------|-------4-4-----|

|
| ~~~~~~~~~~~~~~~~~~~
| Q +Q +Q H.
 
 |------------------------|---------------|
 |-21b23====(21)---(21)r==|=/21-----------|
 |------------------------|---------------|
 |------------------------|---------------|
 |------------------------|---------------|
 |------------------------|---------------|

PM| PM|
[E] [E] [E] [E] [E] [E] [E] [E] [E] [E] [E] [E]  
 
 |----------------|----------------------|
 |----------------|----------------------|
 |----------------|----------------------|
 |----------------|----------------------|
 |-1h=2------4p=2-|--1h2-------4p===2----|
 |------4--4------|------4-4-------------|

|
| T T T ~~~
| E E E E E E H +E +S S
 
 |----------------|----------------------|
 |-9h21p7-19p5h17S|=16-------(16)-(16)s0-|
 |----------------|----------------------|
 |----------------|----------------------|
 |----------------|----------------------|
 |----------------|----------------------|

^Tap and Legato slide with tapping finger
 
 PM---| PM---|

[E] [E] [E] [E] [E] [E] [E] [E] [E] [E] [E] [E]  
 
 |-------------------------------------|-------------------------------------|
 |-------------------------------------|-------------------------------------|
 |-------------------------------------|-------------------------------------|
 |-------------------------------------|-------------------------------------|
 |--1h====2-----------------4p====2----|--1h====2-----------------4p====2----|
 |--------------0-----0----------------|--------------0-----0----------------|

|
| S S S S S S S S S S S S S S S S S S S S S S S S
|-18h19h21p19h21p19p16h18h19h21p19p18p|=16h18h19p18h19p18p15h16h18h19p18p16p|
 
 |-------------------------------------|-------------------------------------|
 |-------------------------------------|-------------------------------------|
 |-------------------------------------|-------------------------------------|
 |-------------------------------------|-------------------------------------|
 |-------------------------------------|-------------------------------------|
 PM---| PM---|

[E] [E] [E] [E] [E] [E] [E] [E] [E] [E] [E] [E]  
 
 |-------------------------------------|------------------------------------------------|
 |-------------------------------------|------------------------------------------------|
 |-------------------------------------|------------------------------------------------|
 |-------------------------------------|------------------------------------------------|
 |--1h====2-----------------4p====2----|--1h====2-----------------4p=======2------------|
 |--------------0-----0----------------|--------------0-----0---------------------------|

|
| S S S S S S S S S S S S S S S S S S S S S T T T T T T
 
 |-15h16h18p16h18p16p12h15h16h18p16p15p|=12h15h16p15h16p15p11h12h15p12p11p10------------|
 |-------------------------------------|-------------------------------------14p13p11---|
 |-------------------------------------|------------------------------------------------|
 |-------------------------------------|------------------------------------------------|
 |-------------------------------------|------------------------------------------------|
 |-------------------------------------|------------------------------------------------|

Just Flurry chromatics at the end. ^
PM| PM| PM-|
[E] [E] [E] [E] [E] [E] [E] [E] [E] [E] [E] [E] [E] [E] [E] [E] [E] [E]  
 
 |-----------------|----------------------|--------------------|
 |-----------------|----------------------|--------------------|
 |-----------------|----------------------|--------------------|
 |-----------------|----------------------|--------------------|
 |--1h===2-----4p2-|--1h==2----------4p=2-|--1h===2--------4p2-|
 |---------4-4-----|----------4---4-------|-----------4--4-----|

|
| ~~~ ~~~~~~~~~~
| |--3--|
| H. Q. +E E E E Q +H
 
 |-----------------|----------------------|--------------------|
 |-12b14r==========|=12-(12)\---/12h14p12-|--------------------|
 |-----------------|----------------------|-13b15---(13)-------|
 |-----------------|----------------------|--------------------|
 |-----------------|----------------------|--------------------|
 |-----------------|----------------------|--------------------|

[E] [E] [E] [E] [E] [E]  
 
 |--------------------------------------------||
 |--------------------------------------------||
 |--------------------------------------------||
 |---------------------------------6h=====9---||
 |------------------6h=====9------------------||
 |---6h=====9---------------------------------||

|
| \0.25/ \0.25/ \0.25/ \0.25/ \0.25/ \1____
|~~~~~~~~~~~~~~~~~~~~~~~~~~~~~~~~~~~~~~~~
| E E E E E E
 
 |--------------------------------------------||
 |--------------------------------------------||
 |-/16-----15------13-------------------------||
 |------------------------17------14-----13---||
 |--------------------------------------------||
 |--------------------------------------------||

Tremolo bar flutter.
Guitar Solo II
[6/4]  
 
 PM-----------------|

W. Q Q E E E Q Q E
 
 |--------------------------|-----------------------|
 |--------------------------|-----------------------|
 |--------------------------|-----------------------|
 |------8-------------------|--8---8--8-8-8-8--8--8-|
 |------6-------------------|--6---6--6-6-6-6--6--6-|
 |------6-------------------|--6---6--6-6-6-6--6--6-|

|
| /
| ~~~~ ~~~
| a +H. E E E E E E W.
 
 |------------------3p0h7p0-|-/6--------------------|
 |--------------0s5---------|-----------------------|
 |--------------------------|-----------------------|
 |-13-(13)------------------|-----------------------|
 |--------------------------|-----------------------|
 |--------------------------|-----------------------|

W. H. H.
 
 |-----------------------|------------------------|
 |-----------------------|------------------------|
 |-----------------------|-------------------13---|
 |-9---------------------|-14----------------14---|
 |-7---------------------|--x-----------------x---|
 |-7---------------------|-12----------------12---|

|
| ~~~~~~~~~~~~ T T ~~~~
| H. +H E E E E E E E E H.
 
 |-7-------(7)-----------|------------------^11---|
 |---------------/11h12--|-19p12p11-17p11p9-------|
 |-----------------------|------------------------|
 |-----------------------|------------------------|
 |-----------------------|------------------------|
 |-----------------------|------------------------|

W.
 
 |-------------------------------------------------------------------------|
 |-------------------------------------------------------------------------|
 |-------------------------------------------------------------------------|
 |--8----------------------------------------------------------------------|
 |--6----------------------------------------------------------------------|
 |--6----------------------------------------------------------------------|

|
| S S S S S S S S S S S S S S S S S S S S S S S S
|-16h18h19p18h19p18p15h16h18h19p18p16S12h15h16p15h16p15p11h12h15h16p15p12-|
 
 |-------------------------------------------------------------------------|
 |-------------------------------------------------------------------------|
 |-------------------------------------------------------------------------|
 |-------------------------------------------------------------------------|
 |-------------------------------------------------------------------------|
 PM---------------------------------------------------------------|

Q Q E E E Q Q E
 
 |---------------------------------------------------------------------------|
 |---------------------------------------------------------------------------|
 |---------------------------------------------------------------------------|
 |--8-----------8-----------8-----8-----8-----8-----------8-----------8------|
 |--6-----------6-----------6-----6-----6-----6-----------6-----------6------|
 |--6-----------6-----------6-----6-----6-----6-----------6-----------6------|

|
| S S S S S S S S S S S S S S S S S S S S S S S S
 
 |---------------------------------------------------------------------------|
 |-14h16h17p16h17p14h17p14h16h17p16p14---------------------------------------|
 |-------------------------------------13h15h16p15h16p15p13h16p13h15h16p15---|
 |---------------------------------------------------------------------------|
 |---------------------------------------------------------------------------|
 |---------------------------------------------------------------------------|

W.
 
 |----------------------------------------------------------------------------------------|
 |----------------------------------------------------------------------------------------|
 |----------------------------------------------------------------------------------------|
 |--9-------------------------------------------------------------------------------------|
 |--7-------------------------------------------------------------------------------------|
 |--7-------------------------------------------------------------------------------------|

|
 
 | PM| PM------|

| |--3--|
| S S S S S S S S S S S S S S S S S S S S T T T T T T T T T
 
 |-------------------------------------------------------------------12h17p12-------------|
 |----------------------------------------------------------------14----------14----------|
 |-12h13h15p13h15p13p12h15p12h13h15p13-------------------------13----------------13-------|
 |-------------------------------------11h13h14p13h14p11h13-14----------------------14----|
 |-------------------------------------------------------------------------------------15p|
 |----------------------------------------------------------------------------------------|

Palm mute sweep.
H. H.
 
 |------------------------|
 |------------------------|
 |-----------------13-----|
 |-14--------------14-----|
 |--x---------------x-----|
 |-12--------------12-----|

|
| ~~~
| H +Q H.
 
 |------------------------|
 |------------------------|
 |------------------------|
 |------------------------|
 |-13b14=====(13)r=13-----|
 |------------------------|
 PM----------------------|

W. Q Q E E E Q Q E
 
 |---------------------------|----------------------------|
 |---------------------------|----------------------------|
 |---------------------------|----------------------------|
 |--8------------------------|--8----8----8-8--8--8--8--8-|
 |--6------------------------|--6----6----6-6--6--6--6--6-|
 |--6------------------------|--6----6----6-6--6--6--6--6-|

|
| T T T T T ~~~
| E E E E E E E E E E E E E E E E E E H.
 
 |---------------------------|----------------------------|
 |--------5p4p2h4h5-9p4-11p2-|-12p5-11p4-17p5-16----------|
 |-/4p3p1--------------------|----------------------------|
 |---------------------------|----------------------------|
 |---------------------------|----------------------------|
 |---------------------------|----------------------------|

W. H. H.
 
 |------------------------------------------|------------------------------|
 |------------------------------------------|------------------------------|
 |------------------------------------------|-----------------------13-----|
 |----9-------------------------------------|--14-------------------14-----|
 |----7-------------------------------------|---x--------------------x-----|
 |----7-------------------------------------|--12-------------------12-----|

|
| \0.5/ \0.5/ \0.5/ \0.5/
| ~~~~~~~~~~~~~~~~~~~~~~~~~~~~~~~~~~~~~~~~~~~~~~~~~~~~~ ~~~
| Q Q Q Q Q Q Q Q +Q H.
 
 |------------------------------------------|------------------------------|
 |------------------------------------------|------------------------------|
 |---/9--------8----6-----/8-------6----4---|--/6-------4---(4)------3-----|
 |------------------------------------------|------------------------------|
 |------------------------------------------|------------------------------|
 |------------------------------------------|------------------------------|

|
| Gtr IV
| \0.5/ \0.5/ \0.5/ \0.5/
| ~~~~~~~~~~~~~~~~~~~~~~~~~~~~~~~~~~~~~~~~~~~~~~~~~~~~~ ~~~
| Q Q Q Q Q Q Q Q +Q H.
 
 |------------------------------------------|------------------------------|
 |------------------------------------------|------------------------------|
 |-/(13)-----(11)--(9)--/(11)-----(9)--(8)--|-/(9)-----(8)--(8)-----(6)----|
 |--/11--------9----8------9-------8----6---|---8-------6---(6)------5-----|
 |------------------------------------------|------------------------------|
 |------------------------------------------|------------------------------|

Bracketed notes for alternate harmony.
 
 PM---------------------|

W. Q Q E E E Q Q E
 
 |--------------------------|--------------------------|
 |--------------------------|--------------------------|
 |--------------------------|--------------------------|
 |-8------------------------|-8-----8---8-8-8--8--8--8-|
 |-6------------------------|-6-----6---6-6-6--6--6--6-|
 |-6------------------------|-6-----6---6-6-6--6--6--6-|

|
| ~~
| E E E E E E E E E E E E E E E E E E H.
 
 |------------------------6-|-7-----7S6-4-3h4----------|
 |--------7-----7-9---7-9---|---[7]--------------------|
 |------8-----8-----8-------|--------------------------|
 |-8--9-----9---------------|--------------------------|
 |--------------------------|--------------------------|
 |--------------------------|--------------------------|

(7) is an Artificial Harmonic.
W. H. H.
 
 |----------------|-----------------||
 |----------------|-----------------||
 |----------------|----------13-----||
 |--9-------------|-14-------14-----||
 |--7-------------|--x--------x-----||
 |--7-------------|-12-------12-----||

|

Important: The song above is NOT stored on the Chordie server. The original song is hosted at www.guitaretab.com. Chordie works as a search engine and provides on-the-fly formatting. Chordie does not index songs against artists'/composers' will. To remove this song please click here.

Text color:
Chord color:
Chord grids: 
Font size:    
Page size: 

E G#5
Rate #1 of 2 versions

Login - add to songbook

SHARE PAGE  




You need to log in to post comments