Guitar Tabs, Chords and Lyrics
Server problems seems to be fixed. Chordie has been experiencing problems with songs disappearing. These issues now seems to be fixed, but still verifying the fix. If you find anything strange, please email admin@chordie.com.


Miscarriage   The Black Dahlia Murder

 
 ||--------------------------------------------------|
 ||o-------------------------------------------------|
 ||--------------------------------------------------|
 ||--3-3-3-3-3-3-------------3-3-3-3-3-3-5-5-5-5-5-5-|
 ||o-------------------------------------------------|
 ||--------------1-1-1-1-1-1-------------------------|

 


 |


 | Gtr II


 

 
 ||--------------------------------------------------|
 ||o-------------------------------------------------|
 ||--------------------------------------------------|
 ||--------------------------------------------------|
 ||o-5-5-5-5-5-5-------------5-5-5-5-5-5-7-7-7-7-7-7-|
 ||--------------1-1-1-1-1-1-------------------------|

 


 


 Gtr I


 

 
 |--------------------------------------------------|
 |--------------------------------------------------|
 |--------------------------------------------------|
 |-2-2-2-2-2-2-------------2-2-2-2-2-2--------------|
 |-------------0-0-0-0-0-0-------------0-0-0-0-0-0--|
 |--------------------------------------------------|

 


 |


 | Gtr II


 

 
 |--------------------------------------------------|
 |--------------------------------------------------|
 |--------------------------------------------------|
 |--------------------------------------------------|
 |-3-3-3-3-3-3-0-0-0-0-0-0-3-3-3-3-3-3-5-5-5-5-5-5--|
 |--------------------------------------------------|

 


 


 Gtr I


 

 
 |-------------------------------------------------|
 |-------------------------------------------------|
 |-------------------------------------------------|
 |-------------------------------------------------|
 |-5-5-5-5-5-5-------------------------5-5-5-5-5-5-|
 |-------------4-4-4-4-4-4-7-7-7-7-7-7-------------|

 


 |


 | Gtr II


 

 
 |-------------------------------------------------|
 |-------------------------------------------------|
 |-------------------------------------------------|
 |-------------------------------------------------|
 |-2-2-2-2-2-2-------------------------------------|
 |-------------4-4-4-4-4-4-5-5-5-5-5-5-7-7-7-7-7-7-|

 


 


 Gtr I


 

 
 |-------------------------------------------------|
 |-------------------------------------------------|
 |-------------------------------------------------|
 |-------------------------------------------------|
 |-7-7-7-7-7-7-0-0-0-0-0-0-7-7-7-7-7-7-0-0-0-0-0-0-|
 |-------------------------------------------------|

 


 |


 | Gtr II


 

 
 |-------------------------------------------------|
 |-------------------------------------------------|
 |-------------------------------------------------|
 |-------------------------------------------------|
 |-------------------------------------------------|
 |-8-8-8-8-8-8-5-5-5-5-5-5-8-8-8-8-8-8-5-5-5-5-5-5-|

 


 


 Repeated but with a slight difference at the end for Guitar II:


 


 

 
 |-------------------------------------------------|
 |-------------------------------------------------|
 |-------------------------------------------------|
 |-3-3-3-3-3-3-------------3-3-3-3-3-3-5-5-5-5-5-5-|
 |-------------------------------------------------|
 |-------------1-1-1-1-1-1-------------------------|

 


 |


 

 
 |-------------------------------------------------|
 |-------------------------------------------------|
 |-------------------------------------------------|
 |-------------------------------------------------|
 |-5-5-5-5-5-5-------------5-5-5-5-5-5-7-7-7-7-7-7-|
 |-------------1-1-1-1-1-1-------------------------|
 |-------------------------------------------------|
 |-------------------------------------------------|
 |-------------------------------------------------|
 |-2-2-2-2-2-2-------------2-2-2-2-2-2-------------|
 |-------------0-0-0-0-0-0-------------0-0-0-0-0-0-|
 |-------------------------------------------------|

 


 |


 

 
 |-------------------------------------------------|
 |-------------------------------------------------|
 |-------------------------------------------------|
 |-------------------------------------------------|
 |-3-3-3-3-3-3-0-0-0-0-0-0-3-3-3-3-3-3-0-0-0-0-0-0-|
 |-------------------------------------------------|

 


 


 1.


 This next bit is not repeated the second time (see 2.)


 

 
 |--------------------------------------------------|
 |--------------------------------------------------|
 |--------------------------------------------------|
 |--------------------------------------------------|
 |--5-5-5-5-5-5-------------------------5-5-5-5-5-5-|
 |--------------4-4-4-4-4-4-7-7-7-7-7-7-------------|

 


 |


 

 
 |--------------------------------------------------|
 |--------------------------------------------------|
 |--------------------------------------------------|
 |--------------------------------------------------|
 |--2-2-2-2-2-2-------------------------------------|
 |--------------4-4-4-4-4-4-5-5-5-5-5-5-7-7-7-7-7-7-|
 |-----------------------------------------------------||
 |----------------------------------------------------o||
 |-----------------------------------------------------||
 |-----------------------------------------------------||
 |-7-7-7-7-7-7-0-0-0-0-0-0-7-7-7-7-7-7-0-0-0-0-0-0----o||
 |-----------------------------------------------------||

 


 |


 

 
 |-----------------------------------------------------||
 |----------------------------------------------------o||
 |-----------------------------------------------------||
 |-----------------------------------------------------||
 |----------------------------------------------------o||
 |-8-8-8-8-8-8-7-7-7-7-7-7-5-5-5-5-5-5-4-4-4-4-4-4-----||

 


 


 Riff B


 2.


 7/8 8/8


 

 
 PM------------------| PM
 |--------------||------------------------|-----------------|
 |--------------||o-----------------------|-----------------|
 |-10--7--4--7--||------------------------|-----------------|
 |--------------||--7---------------------|-----------------|
 |--8--5--2--5--||o-7---------------------|---7p3-----5p2---|
 |--------------||--5---5-5-5-5-5-5-5-5-5-|-0-----5-0-----4-|

 


 |


 

 
 | PM--------------| PM| PM
 |--------------||------------------------|-----------------|
 |--------------||o-----------------------|-----------------|
 |--7--4--------||------------------------|-----------------|
 |--------3--6--||--7---------------------|-----------------|
 |--5--2--------||o-7---------------------|-----------------|
 |--------1--4--||--5---5-5-5-5-5-5-5-5-5-|-0-8p5-5-0-7p4-4-|
 PM------| PM----| PM----------|
 |---------------------|-------------------------||
 |---------------------|------------------------o||
 |---------------------|-------------------------||
 |-7------------9S10---|-----10S6----------------||
 |-7-------------------|------------------------o||
 |-5--5-5-5-5-5-7S=8-8-|-8-8--8S4-4--4--4-4-4-4--||

 


 |


 

 
 | PM------| PM----| PM--|
 |---------------------|-------------------------||
 |---------------------|------------------------o||
 |---------------------|-------------------------||
 |-7------------9S10---|-------------------------||
 |-7-------------------|------7p3---------------o||
 |-5--5-5-5-5-5-7S=8-8-|-8-8------4-(4)-4-4-4----||

 


 


 Riff C


 Q=195


 Gtrs I, II


 PM PM PM| PM PM| PM PM PM PM| PM PM|


 

 
 |----------------|-----------------|----------------|------------------|
 |----------------|-----------------|----------------|------------------|
 |----------------|-----------------|----------------|------------------|
 |----------------|-----------------|----------------|------------------|
 |------5---7-----|-8---7-----5h7---|------8---7-----|-5---7-----8-7-5--|
 |-4--4---4---4-4-|---4---4-4-----4-|-5--5---5---5-5-|---5---5-5--------|

 


 


 Gtr I


 

 
 PM PM PM| PM PM| PM PM PM PM--------|
 |----------------|-----------------|----------------|-----------------|
 |----------------|-----------------|----------------|-----------------|
 |----------------|-----------------|----------------|-----------------|
 |----------------|-----------------|----------------|-----------------|
 |------5---7-----|-8---7-----5h7---|------8---7-----|-------2-5--2----|
 |-4--4---4---4-4-|---4---4-4-----4-|-5--5---5---5-5-|-0-1-4--------4--|

 


 |


 | Gtr II


 

 
 | PM PM PM| PM PM| PM PM PM PM--------|
 |----------------|-----------------|----------------|-----------------|
 |----------------|-----------------|----------------|-----------------|
 |----------------|-----------------|----------------|-----------------|
 |----------------|-----------------|----------------|-----------------|
 |------2---3-----|-5---3-----2h3---|------5---3-----|-------5-8--5----|
 |-4--4---4---4-4-|---4---4-4-----4-|-5--5---5---5-5-|-0-4-7--------4--|

 


 


 Riff B


 


 Riff D


 

 
 PM PM--| PM-----------------
 ||-----------------|----------------------|
 ||o----------------|----------------------|
 ||-----------------|----------------------|
 ||-----------------|----------------------|
 ||o------3p2-------|-2--------------------|
 ||--1--4-----0-1-4-|-0--0-0-0-0-0-0-0-0-0-|

 


 |


 

 
 | PM PM--| PM-----------------
 ||-----------------|----------------------|
 ||o----------------|----------------------|
 ||-----------------|----------------------|
 ||-----------------|----------------------|
 ||o------3p2-------|-2--------------------|
 ||--1--4-----0-1-4-|-0--0-0-0-0-0-0-0-0-0-|
 -------| PM--| PM--| PM|
 |-------------------|--------------------||
 |-------------------|-------------------o||
 |-------------------|--------------------||
 |-------------------|-5--------4---------||
 |---------3p2-------|-3--------2--------o||
 |-0-0-1-1-----0-1-4-|----4-4-4----1-4----||

 


 |


 

 
 |-------| PM--| PM--| PM|
 |-------------------|--------------------||
 |-------------------|-------------------o||
 |-------------------|--------------------||
 |-------------------|-5--------4---------||
 |-0-0-0-3-7p5-------|-3--------2--------o||
 |-------------4-5-7-|----4-4-4----1-4----||

 


 


 Riff E


 PM--| PM PM--| PM PM


 

 
 |------------------|-------------------|
 |------------------|-------------------|
 |------------------|-------------------|
 |----------10---9--|-----------9---7---|
 |-7----------------|-------------------|
 |-5--5-5-5----5----|-8--8-8-8----8---8-|

 


 |


 | PM--| PM PM--| PM PM


 

 
 |------------------|-------------------|
 |------------------|-------------------|
 |------------------|-------------------|
 |-----------7---5--|-------------------|
 |-7----------------|----------10---8---|
 |-5--5-5-5----5----|-8--8-8-8----8---8-|
 PM--------------------------------------|
 |----------------------|-------------------------|
 |----------------------|-------------------------|
 |----------------------|-------------------------|
 |-6--------------------|-------------------------|
 |----------------------|-------------------------|
 |----0-0-0-0-0-0-0-0-0-|-0-0-0-0-0-0-0-0-0-1-4---|

 


 |


 

 
 | PM--------------------------------------|
 |----------------------|-------------------------|
 |----------------------|-------------------------|
 |----------------------|-------------------------|
 |----------------------|-------------------------|
 |-7--------------------|-------------------------|
 |----0-0-0-0-0-0-0-0-0-|-0-0-0-0-0-0-0-0-0-4-7---|
 PM--| PM--| PM--| PM--|
 |-------------------|-------------------|
 |-------------------|-------------------|
 |-------------------|-------------------|
 |-3--------5--------|-7--------9--------|
 |-------------------|-------------------|
 |----1-1-1----4-4-4-|----5-5-5----7-7-7-|

 


 |


 

 
 | PM--| PM--| PM--| PM--|
 |-------------------|-------------------|
 |-------------------|-------------------|
 |-------------------|-------------------|
 |-------------------|----------6--------|
 |-5--------7--------|-8-----------5-5-5-|
 |----5-5-5----7-7-7-|----8-8-8----------|

 


 


 PM PM PM PM


 

 
 |--------------------|-----------------------|
 |--------------------|-----------------------|
 |--------------------|-----------------------|
 |-10--6h=7----7h=9---|-------------6h=7p6----|
 |--------------------|-8h11---11-----------8-|
 |----------0-------0-|------0----0-----------|

 


 |


 | PM PM PM PM


 

 
 |--------------------|-----------------------|
 |--------------------|-----------------------|
 |--9-----------------|-----------------------|
 |-----9h10---10h12---|-7h=9----9---9h10p9----|
 |--------------------|--------------------11-|
 |----------0-------0-|------0----0-----------|

 


 


 PM--| PM PM--| PM PM


 

 
 |------------------|-------------------|
 |------------------|-------------------|
 |------------------|-------------------|
 |----------10---9--|-----------9---7---|
 |-7----------------|-------------------|
 |-5--5-5-5----5----|-8--8-8-8----8---8-|

 


 |


 | PM--| PM PM--| PM PM


 

 
 |------------------|-------------------|
 |------------------|-------------------|
 |------------------|-------------------|
 |-----------7---5--|-------------------|
 |-7----------------|----------10---8---|
 |-5--5-5-5----5----|-8--8-8-8----8---8-|
 PM--------------------------------------|
 |----------------------|-------------------------|
 |----------------------|-------------------------|
 |----------------------|-------------------------|
 |-6--------------------|-------------------------|
 |----------------------|-------------------------|
 |----0-0-0-0-0-0-0-0-0-|-0-0-0-0-0-0-0-0-0-1-4---|

 


 |


 

 
 | PM--------------------------------------|
 |----------------------|-------------------------|
 |----------------------|-------------------------|
 |----------------------|-------------------------|
 |----------------------|-------------------------|
 |-7--------------------|-------------------------|
 |----0-0-0-0-0-0-0-0-0-|-0-0-0-0-0-0-0-0-0-4-7---|
 PM--| PM--| PM--| PM---| PM PM
 |-------------------|------------------------|--------------------|-------|
 |-------------------|------------------------|--------------------|-------|
 |-------------------|------------------------|--------------------|-------|
 |-3--------5--------|--7---------9-----------|-10--6h=7----7h=9---|-6-----|
 |-------------------|------------------------|--------------------|-------|
 |----1-1-1----4-4-4-|-----5-5-5------7--7--7-|----------0-------0-|-------|

 


 |


 

 
 | PM--| PM--| PM--| PM---| PM PM
 |-------------------|------------------------|--------------------|-------|
 |-------------------|------------------------|--------------------|-------|
 |-------------------|------------------------|--9-----------------|-------|
 |-7--------9--------|-10--------12-----------|-----9h10---10h12---|-9-----|
 |-------------------|------------------------|--------------------|-------|
 |----5-5-5----7-7-7-|-----8-8-8-----10-10-10-|----------0-------0-|-------|

 


 


 Riff A.2


 Guitar II repeats first riff


 [4/4]  

 
 |-------------------------------------------------|
 |-------------------------------------------------|
 |-------------------------------------------------|
 |-3-----------------------------------------------|
 |-3-----------------------------------------------|
 |-1-----------------------------------------------|

 


 |


 

 
 |-------------------------------------------------|
 |-------------------------------------------------|
 |-------------------------------------------------|
 |-------------------------------------------------|
 |-5-5-5-5-5-5-------------5-5-5-5-5-5-7-7-7-7-7-7-|
 |-------------1-1-1-1-1-1-------------------------|
 PM--------|
 |-----------------------------------------------------|
 |-----------------------------------------------------|
 |-----------------------------------------------------|
 |-(3)-------------------------------------------------|
 |-(3)-------------------------------------------------|
 |-(1)-----------------------------------0-0-0-0-0-0---|

 


 |


 

 
 |-----------------------------------------------------|
 |-----------------------------------------------------|
 |-----------------------------------------------------|
 |-----------------------------------------------------|
 |--3--3-3-3-3-3-0-0-0-0-0-0-3-3-3-3-3-3-0-0-0-0-0-0---|
 |-----------------------------------------------------|

 


 


 PM


 

 
 |-------------------------------------------------|
 |-------------------------------------------------|
 |-------------------------------------------------|
 |-2-----------------------------------------------|
 |-2-----------------------------------------------|
 |-0-----------------------------------------------|

 


 |


 

 
 |-------------------------------------------------|
 |-------------------------------------------------|
 |-------------------------------------------------|
 |-------------------------------------------------|
 |-2-2-2-2-2-2-------------------------------------|
 |-------------4-4-4-4-4-4-5-5-5-5-5-5-7-7-7-7-7-7-|
 |-------------------------------------------------|
 |-------------------------------------------------|
 |-------------------------------------------------|
 |-------------------------------------------------|
 |-------------------------------------------------|
 |-------------------------------------------------|

 


 |


 

 
 |-------------------------------------------------|
 |-------------------------------------------------|
 |-------------------------------------------------|
 |-------------------------------------------------|
 |-------------------------------------------------|
 |-8-8-8-8-8-8-5-5-5-5-5-5-8-8-8-8-8-8-5-5-5-5-5-5-|
 |-------------------------------------------------|
 |-------------------------------------------------|
 |-------------------------------------------------|
 |-3-----------------------------------------------|
 |-3-----------------------------------------------|
 |-1-----------------------------------------------|

 


 |


 

 
 |-------------------------------------------------|
 |-------------------------------------------------|
 |-------------------------------------------------|
 |-------------------------------------------------|
 |-5-5-5-5-5-5-------------5-5-5-5-5-5-7-7-7-7-7-7-|
 |-------------1-1-1-1-1-1-------------------------|
 PM--------|
 |---------------------------------------------------|
 |---------------------------------------------------|
 |---------------------------------------------------|
 |-(3)-----------------------------------------------|
 |-(3)-----------------------------------------------|
 |-(1)-----------------------------------0-0-0-0-0-0-|

 


 |


 

 
 |---------------------------------------------------|
 |---------------------------------------------------|
 |---------------------------------------------------|
 |---------------------------------------------------|
 |--3--3-3-3-3-3-0-0-0-0-0-0-3-3-3-3-3-3-0-0-0-0-0-0-|
 |---------------------------------------------------|
 |-------------------------------------------------|
 |-------------------------------------------------|
 |-------------------------------------------------|
 |-2-----------------------------------------------|
 |-2-----------------------------------2S==========|
 |-0-----------------------------------------------|

 


 |


 

 
 |-------------------------------------------------|
 |-------------------------------------------------|
 |-------------------------------------------------|
 |-------------------------------------------------|
 |-2-2-2-2-2-2-------------------------------------|
 |-------------4-4-4-4-4-4-5-5-5-5-5-5-7-7-7-7-7-7-|
 |--------------------------------------------------|
 |--------------------------------------------------|
 |--------------------------------------------------|
 |--------------------------------------------------|
 |-12-----------------------------------------------|
 |--------------------------------------------------|

 


 |


 

 
 |--------------------------------------------------|
 |--------------------------------------------------|
 |--------------------------------------------------|
 |--------------------------------------------------|
 |--------------------------------------------------|
 |--8-8-8-8-8-8-7-7-7-7-7-7-5-5-5-5-5-5-4-4-4-4-4-4-|

 


 


 Riff A.3 (Note Guitar I is slightly different on second measure)


 

 
 |-------------------------------------------------|
 |-------------------------------------------------|
 |-------------------------------------------------|
 |-3-3-3-3-3-3-------------3-3-3-3-3-3-5-5-5-5-5-5-|
 |-------------------------------------------------|
 |-------------1-1-1-1-1-1-------------------------|

 


 |


 

 
 |-------------------------------------------------|
 |-------------------------------------------------|
 |-------------------------------------------------|
 |-------------------------------------------------|
 |-5-5-5-5-5-5-------------5-5-5-5-5-5-7-7-7-7-7-7-|
 |-------------1-1-1-1-1-1-------------------------|
 |-------------------------------------------------|
 |-------------------------------------------------|
 |-------------------------------------------------|
 |-2-2-2-2-2-2-------------------------------------|
 |-------------0-0-0-0-0-0-0-0-0-0-0-0-0-0-0-0-0-0-|
 |-------------------------------------------------|

 


 |


 

 
 |-------------------------------------------------|
 |-------------------------------------------------|
 |-------------------------------------------------|
 |-------------------------------------------------|
 |-3-3-3-3-3-3-0-0-0-0-0-0-3-3-3-3-3-3-0-0-0-0-0-0-|
 |-------------------------------------------------|
 |-------------------------------------------------|
 |-------------------------------------------------|
 |-------------------------------------------------|
 |-------------------------------------------------|
 |-5-5-5-5-5-5-------------------------5-5-5-5-5-5-|
 |-------------4-4-4-4-4-4-7-7-7-7-7-7-------------|

 


 |


 

 
 |-------------------------------------------------|
 |-------------------------------------------------|
 |-------------------------------------------------|
 |-------------------------------------------------|
 |-2-2-2-2-2-2-------------------------------------|
 |-------------4-4-4-4-4-4-5-5-5-5-5-5-7-7-7-7-7-7-|
 |-------------------------------------------------|
 |-------------------------------------------------|
 |-------------------------------------------------|
 |-2-2-2-2-2-2-------------------------------------|
 |-------------0-0-0-0-0-0-0-0-0-0-0-0-0-0-0-0-0-0-|
 |-------------------------------------------------|

 


 |


 

 
 |-------------------------------------------------|
 |-------------------------------------------------|
 |-------------------------------------------------|
 |-------------------------------------------------|
 |-------------------------------------------------|
 |-8-8-8-8-8-8-5-5-5-5-5-5-8-8-8-8-8-8-5-5-5-5-5-5-|

 


 


 Repeat but end with


 


 

 
 |-------------------------------------------------|
 |-------------------------------------------------|
 |-------------------------------------------------|
 |-2-2-2-2-2-2-------------------------------------|
 |-------------0-0-0-0-0-0-0-0-0-0-0-0-0-0-0-0-0-0-|
 |-------------------------------------------------|

 


 |


 

 
 |-------------------------------------------------|
 |-------------------------------------------------|
 |-------------------------------------------------|
 |-------------------------------------------------|
 |-------------------------------------------------|
 |-8-8-8-8-8-8-7-7-7-7-7-7-5-5-5-5-5-5-4-4-4-4-4-4-|

 


 


 Guitar Solo


 Gtr I


 

 
 |----------------|----------------------|
 |----------------|----------------------|
 |----------------|----------------------|
 |-3--------------|-(3)------------------|
 |-3--------------|-(3)------------------|
 |-1--------------|-(1)------------------|

 


 |


 | Gtr II


 

 
 |----------------|----------------------|
 |----------------|----------------------|
 |----------------|----------------------|
 |-3--------------|-(3)------------------|
 |-3--------------|-(3)------------------|
 |-1--------------|-(1)------------------|

 


 |


 | Gtr III


 

 
 |------------8---|--7---8p7-------7-8-7-|
 |---------10-----|----------10-10-------|
 |-------9--------|----------------------|
 |-7--10----------|----------------------|
 |----------------|----------------------|
 |----------------|----------------------|
 |-----------------|--------------------------|
 |-----------------|--------------------------|
 |-----------------|--------------------------|
 |--7--------------|-(7)----------------------|
 |--7--------------|-(7)----------------------|
 |--5--------------|-(5)----------------------|

 


 |


 

 
 |-----------------|--------------------------|
 |-----------------|--------------------------|
 |-----------------|--------------------------|
 |--7--------------|-(7)---------(7)----------|
 |--7--------------|--7-----------8-----------|
 |--5--------------|-(5)---------(5)----------|

 


 |


 | PM--|


 

 
 |-------------8---|--7---8p7--------7-8-10S==|
 |----------10-----|----------10-10-----------|
 |--------9--------|--------------------------|
 |-/7--10----------|--------------------------|
 |-----------------|--------------------------|
 |-----------------|--------------------------|
 |--------------------------|---------------------------|
 |--------------------------|---------------------------|
 |--------------------------|---------------------------|
 |--3-----------------------|-(3)-----------------------|
 |--3-----------------------|-(3)-----------------------|
 |--1-----------------------|-(1)-----------------------|

 


 |


 

 
 |--------------------------|---------------------------|
 |--------------------------|---------------------------|
 |--------------------------|---------------------------|
 |--3-----------------------|-(3)-----------------------|
 |--3-----------------------|-(3)-----------------------|
 |--1-----------------------|-(1)-----------------------|

 


 |


 

 
 |-13--12-10-12p10----10----|---------------------------|
 |-----------------13----13-|-12tr13--10-12-13-12----10-|
 |--------------------------|---------------------13----|
 |--------------------------|---------------------------|
 |--------------------------|---------------------------|
 |--------------------------|---------------------------|
 |-----------------------|-------------|
 |-----------------------|-------------|
 |-----------------------|-------------|
 |---2-------------------|-------------|
 |---2-------------------|-2----(2)b3--|
 |---0-------------------|-------------|

 


 |


 

 
 |-----------------------|-------------|
 |-----------------------|-------------|
 |-----------------------|-------------|
 |---2-------------------|-------------|
 |---2-------------------|-5----(5)b6--|
 |---0-------------------|-------------|

 


 |


 | ~~~~ ~


 

 
 |-----------------------|-------------|
 |-(10)------------------|-------------|
 |-------13-10-9-10-9----|-9-----------|
 |--------------------12-|-------------|
 |-----------------------|-------------|
 |-----------------------|-------------|

 


 


 Riff F


 


 Gtrs I, II


 PM PM PM| PM PM|


 

 
 |-----------------------|--------------------------|
 |-----------------------|--------------------------|
 |-----------------------|--------------------------|
 |-----------2----3------|--2----3---------2h3p=2p0-|
 |-----------------------|--------------------------|
 |--1---1-------1----1-1-|----1-------1--1----------|

 


 |


 | Gtr III


 

 
 |-12--10p8h10----8------|-12---10p8h10----8--------|
 |-------------12---12-9-|--------------12-----12-9-|
 |-----------------------|--------------------------|
 |-----------------------|--------------------------|
 |-----------------------|--------------------------|
 |-----------------------|--------------------------|

 


 


 PM PM PM|


 

 
 |---------------------------|----------------------------------|
 |---------------------------|----------------------------------|
 |---------------------------|----------------------------------|
 |-------------2-----5-------|---2----3-----------2h3p=2p0--5---|
 |---0---0--------0-----0--0-|-----0--------0--0----------------|
 |---------------------------|----------------------------------|

 


 |


 

 
 |-/17--15p13h15----13-------|-/17---15p13h15----13-------------|
 |---------------17----17-13-|----------------17------17---13---|
 |---------------------------|----------------------------------|
 |---------------------------|----------------------------------|
 |---------------------------|----------------------------------|
 |---------------------------|----------------------------------|

 


 


 Gtr I


 PM PM PM-|


 

 
 |---------------------------------|
 |---------------------------------|
 |---------------------------------|
 |-----------2-----3---------------|
 |---------------------------------|
 |--1-----1----1----------1---1----|

 


 |


 | Gtr II


 | PM PM PM-|


 

 
 |---------------------------------|
 |---------------------------------|
 |---------------------------------|
 |-----------2-----3---------------|
 |---------------------------------|
 |--1-----1----1----------1---1----|

 


 |


 | Gtr III


 | \0.5


 

 
 |-12-12------------------------12-|
 |-------13------------------13----|
 |----------14---(14)---(14)-------|
 |---------------------------------|
 |---------------------------------|
 |---------------------------------|

 


 


 PM PM|


 

 
 |---------------------------|--------------|----------------|
 |---------------------------|--------------|----------------|
 |---------------------------|--------------|----------------|
 |--2-----3--------2h=3p=2p0-|--2-----------|----------------|
 |---------------------------|--2-----------|--2b3-----------|
 |-----1-----1--1------------|--0-----------|----------------|

 


 |


 | PM PM|


 

 
 |---------------------------|--------------|----------------|
 |---------------------------|--------------|----------------|
 |---------------------------|--------------|----------------|
 |--2-----3--------2h=3p=2p0-|--2-----------|----------------|
 |---------------------------|--2-----------|--5b6-----------|
 |-----1-----1--1------------|--0-----------|----------------|

 


 |


 |


 |


 

 
 |-13-12-10----10------------|--------------|-15--------(15)-|
 |----------13----13-12-10---|-10-----------|----------------|
 |---------------------------|--------------|----------------|
 |---------------------------|--------------|----------------|
 |---------------------------|--------------|----------------|
 |---------------------------|--------------|----------------|

 


 


 Riff D


 


 Riff E


 End with this:


 


 PM PM PM PM


 4x


 

 
 ||---------------------|------------------------||
 ||o--------------------|-----------------------o||
 ||---------------------|------------------------||
 ||--10--6h=7----7h=9---|-------------6h=7p6-----||
 ||o--------------------|-8h11---11-----------8-o||
 ||-----------0-------0-|------0----0------------||

 


 |


 | PM PM PM PM


 | 4x


 

 
 ||---------------------|------------------------||
 ||o--------------------|-----------------------o||
 ||---9-----------------|------------------------||
 ||------9h10---10h12---|-7h=9----9---9h10p9-----||
 ||o--------------------|--------------------11-o||
 ||-----------0-------0-|------0----0------------||

 


 


 Riff G.1


 PM PM


 4x


 

 
 ||----------------|-------------------||-|
 ||o---------------|------------------o||-|
 ||----------------|----1h4p1---1------||-|
 ||----------------|----------3---3-0--||-|
 ||o-7----3---3S6--|-2----------------o||-|
 ||--5--0-1-0-1S4--|-0-----------------||-|

 


 |


 | PM PM


 | 4x


 

 
 ||----------------|-------------------||-|
 ||o---------------|------------------o||-|
 ||----------------|-------------------||-|
 ||----------------|----3h6p3---3------||-|
 ||o-7----3---3S6--|-2--------5---5-2-o||-|
 ||--5--0-1-0-1S4--|-0-----------------||-|

 


 


 Riff G.2


 

 
 PM--------------|

 


 4x


 

 
 ||-----------------|---------------------||
 ||o----------------|--------------------o||
 ||-----------------|-----1h4p1---1-------||
 ||-----------------|-----------3---3-0---||
 ||o-7----3---3-6-6-|-2-2----------------o||
 ||--5--0-1-0-1-4-4-|-0-0-----------------||

 


 |


 

 
 | PM--------------|

 


 | 4x


 

 
 ||-----------------|---------------------||
 ||o----------------|-----0h3p0----------o||
 ||-----------------|-----------1-4-1-----||
 ||-----------------|-----------------3---||
 ||o-7----3---3-6-6-|-2-2----------------o||
 ||--5--0-1-0-1-4-4-|-0-0-----------------||

 


 


 Outro


 Gtrs I, II


 

 
 PM PM------|
 |----------------|---------*|
 |----------------|---------*|
 |----------------|---------*|
 |----------------|---------*|
 |------3p2-------|-2-------*|
 |-1--4-----0-1-4-|-0-------*|

 


 


 Tablature Legend


 

 
 ----------------


Important: The song above is NOT stored on the Chordie server. The original song is hosted at www.guitaretab.com. Chordie works as a search engine and provides on-the-fly formatting. Chordie does not index songs against artists'/composers' will. To remove this song please click here.

This song is displayed as text-only. Transposing and tuning is only available for chordpro-songs.
Rate #1 of 2 versions

Jango Player

Login - add to songbook

SHARE PAGE  



You need to log in to post comments