Guitar Tabs, Chords and Lyrics
Server problems seems to be fixed. Chordie has been experiencing problems with songs disappearing. These issues now seems to be fixed, but still verifying the fix. If you find anything strange, please email admin@chordie.com.


Flies   The Black Dahlia Murder

 
 PM PM------------|
 |----------|----------------|----------|------------------------------|
 |----------|----------------|----------|------------------------------|
 |----------|----------------|----------|------------------------------|
 |-2--------|-(2)------3-3-3-|-2--------|-6h7p6---6--------------------|
 |-2--------|-(2)------3-3-3-|-2--------|-------8---8-7-8-7-5-7-5------|
 |-0--------|-(0)------1-1-1-|-0--------|-------------------------8----|

 


 |


 | Gtr II


 

 
 | PM PM------------|
 |----------|----------------|----------|------------------------------|
 |----------|----------------|----------|------------------------------|
 |----------|----------------|----------|------------------------------|
 |-2--------|-(2)------3-3-3-|-2--------|-2h3p2---2--------------------|
 |-2--------|-(2)------3-3-3-|-2--------|-------5---5-3-5-3-2-3-2------|
 |-0--------|-(0)------1-1-1-|-0--------|-------------------------5----|

 


 


 Riff A [0:07]


 

 
 PM----| PM------------------------------------------
 |-----------------------------|----------------------------|
 |-----------------------------|----------------------------|
 |-----------------------------|----------------------------|
 |-----------------------------|----7-9-10-9-7-9-7----7-6---|
 |---------11S12---------------|-11----------------11-----8-|
 |-0-0-0-0-------0-0-0-0-0-0-0-|----------------------------|

 


 |


 

 
 | PM----| PM------------------------------------------
 |-----------------------------|----------------------------|
 |-----------------------------|----------------------------|
 |-----------------------------|----------------------------|
 |-----------------------------|------6--7-6---6------------|
 |----------7S=8---------------|--7-8--------8---8--7-8-7-5-|
 |-0-0-0-0-------0-0-0-0-0-0-0-|----------------------------|
 -------| PM----------| PM----------------------|
 |-----------------------------|---------------------------------------|
 |-----------------------------|---------------------------------------|
 |-----------------------------|---------------------------------------|
 |-----------------------------|---------------------------------------|
 |---------11S12---------------|-11h12p11-8-11-8----8------------------|
 |-0-0-0-0-------0-0-0-0-0-0-0-|-----------------12---12-10-12-10-8----|

 


 |


 

 
 |-------| PM----------| PM----------------------|
 |-----------------------------|---------------------------------------|
 |-----------------------------|---------------------------------------|
 |-----------------------------|---------------------------------------|
 |-----------------------------|---------------------------------------|
 |----------7S=8---------------|--7h=8p=7-5--7-5----5------------------|
 |-0-0-0-0-------0-0-0-0-0-0-0-|------------------8----8--7--8--7-5----|
 PM----| PM----------| PM----| TP---|
 |-----------------------------|----------------------|
 |-----------------------------|----------------------|
 |-----------------------------|----------------------|
 |-----------------------------|----------------------|
 |---------11S12---------------|-11S12---------14-----|
 |-0-0-0-0-------0-0-0-0-0-0-0-|-------0-0-0-0-----13-|

 


 |


 

 
 | PM----| PM----------| PM----| TP---|
 |-----------------------------|----------------------|
 |-----------------------------|----------------------|
 |-----------------------------|----------------------|
 |-----------------------------|----------------------|
 |----------7S=8---------------|--7S=8---------11-----|
 |-0-0-0-0-------0-0-0-0-0-0-0-|-------0-0-0-0-----10-|
 PM----| PM-----------------------------| ~~~
 |-----------------------------|--------------------------------|
 |-----------------------------|----------------------------12--|
 |-----------------------------|-------------------10-12-14-----|
 |-----------------------------|----------10-12-14--------------|
 |---------11S12---------------|-11-12-14-----------------------|
 |-0-0-0-0-------0-0-0-0-0-0-0-|--------------------------------|

 


 |


 

 
 | PM----| PM--------------------------------------| ~~~
 |-----------------------------|--------------------------------|
 |-----------------------------|-----------------------------9\-|
 |-----------------------------|--------------------7--9-10-----|
 |-----------------------------|-----------7--9-10--------------|
 |----------7S=8---------------|--7--8-11-----------------------|
 |-0-0-0-0-------0-0-0-0-0-0-0-|--------------------------------|

 


 


 Riff B [0:21]


 Gtr I Gtr III Gtr I Gtr III Gtr I


 

 
 PM--| PM PM PM PM--| PM-----
 |-------------------------|-------------------------------------------------|
 |-------------------------|-------------------------------------------------|
 |-------------------------|-------------------------------------------------|
 |-------------------------|-------------------------------------------------|
 |-------8p7---8p7---8p7---|-11-11-11-11-11-11-------11-11-11-11-11-11-------|
 |-0-0-0-----0-----0-----0-|-------------------0-0-0-------------------0-0-0-|

 


 |


 | Gtr II Gtr IV Gtr IIGtr IV Gtr II


 

 
 | PM--| PM PM PM PM--| PM-----
 |-------------------------|-------------------------------------------------|
 |-------------------------|-------------------------------------------------|
 |-------------------------|-------------------------------------------------|
 |-------------------------|-------------------------------------------------|
 |-------8p7---8p7---8p7---|-11-11-11-11-11-11-------11-11-11-11-11-11-------|
 |-0-0-0-----0-----0-----0-|-------------------0-0-0-------------------0-0-0-|

 


 


 Gtr III


 

 
 -----| PM PM PM TP------|
 |-------------------------|-----------------------------|
 |-------------------------|-----------------------------|
 |-------------------------|-----------------------------|
 |-------------------------|-9--10--9--------------------|
 |-------8p7---8p7---8p7---|-----------11-11-12-12-11-11-|
 |-0-0-0-----0-----0-----0-|-----------------------------|

 


 |


 | Gtr IV


 

 
 |-----| PM PM PM TP------|
 |-------------------------|-----------------------------|
 |-------------------------|-----------------------------|
 |-------------------------|-----------------------------|
 |-------------------------|-6--7--6---------------------|
 |-------8p7---8p7---8p7---|------------8--8-11-11--8--8-|
 |-0-0-0-----0-----0-----0-|-----------------------------|

 


 


 Gtr I Gtr III Gtr I Gtr III Gtr I


 

 
 PM--| PM PM PM PM--| PM-----
 |-------------------------|-------------------------------------------------|
 |-------------------------|-------------------------------------------------|
 |-------------------------|-------------------------------------------------|
 |-------------------------|-14-14-14-14-14-14-------14-14-14-14-14-14-------|
 |-------8p7---8p7---8p7---|-------------------------------------------------|
 |-0-0-0-----0-----0-----0-|-------------------0-0-0-------------------0-0-0-|

 


 |


 | Gtr II Gtr IV Gtr IIGtr IV Gtr II


 

 
 | PM--| PM PM PM PM--| PM-----
 |-------------------------|-------------------------------------------------|
 |-------------------------|-------------------------------------------------|
 |-------------------------|-------------------------------------------------|
 |-------------------------|--9--9--9--9--9--9--------9--9--9--9--9--9-------|
 |-------8p7---8p7---8p7---|-------------------7-7-7-------------------7-7-7-|
 |-0-0-0-----0-----0-----0-|-------------------------------------------------|
 -----| PM PM PM--| ~ PM ~~
 |-------------------------|-----------------------|
 |-------------------------|------------9S10-10----|
 |-------------------------|-----------------------|
 |-------------------------|------------6S=7--7----|
 |-------8p7---8p7---8p7---|---2S3-3---------------|
 |-0-0-0-----0-----0-----0-|-0--------0------------|

 


 |


 

 
 |-----| PM PM PM--| ~ ~~
 |-------------------------|-----------------------|
 |-------------------------|-----------------------|
 |-------------------------|-----------------------|
 |-------------------------|-----------------------|
 |-------8p7---8p7---8p7---|------------7S=8--8----|
 |-0-0-0-----0-----0-----0-|-0-4S5-5--0------------|

 


 


 Riff A [0:34]


 


 Riff C [0:48]


 

 
 PM---------------------------------------------------
 ||---------------------------|--------------------------|
 ||o--------------------------|--------------------------|
 ||---------------------------|--------------------------|
 ||---------------------------|--------------------------|
 ||o--------------------------|--------------------------|
 ||--7-0-5-7-0-5--7-0-5-8-7-5-|-7-0-5-7-0-5--7-0-5-8-7-5-|

 


 |


 

 
 ||---------------------------|--------------------------|
 ||o--------------------------|--------------------------|
 ||---------------------------|--------------------------|
 ||--9-----9-----10-----9-----|-9-----9-----10-----9-----|
 ||o---7-----7------7-----7---|---7-----7------7-----7---|
 ||------5-----5------5-----5-|-----5-----5------5-----5-|

 


 


 1.


 

 
 --------------------------------------------------------|
 |-----------------------------|-------------------------------||
 |-----------------------------|------------------------------o||
 |-----------------------------|-------------------------------||
 |-6------6------6------6------|-9------9------9------9--------||
 |---8------8------8------8----|---8------8------8------8-----o||
 |-----10-----10-----10-----10-|-----10-----10-----10-----10---||

 


 |


 

 
 | PM-----------------------|
 |-----------------------------|-------------------------------||
 |-----------------------------|------------------------------o||
 |-----------------------------|-------------------------------||
 |-3------3------3------3------|-6------6------6------6--------||
 |---5------5------5------5----|---5------5------5------5-----o||
 |------7------7------7------7-|------7------7------7------7---||

 


 


 2.


 

 
 PM----------------|
 |----------------------------------||
 |----------------------------------||
 |----------------------------------||
 |-9------9------9------9-9-9-9-9-9-||
 |---8------8------8----------------||
 |-----10-----10-----10-------------||

 


 |


 

 
 |----------------------------------||
 |----------------------------------||
 |----------------------------------||
 |-6------6------6------6-6-6-6-6-6-||
 |---5------5------5----------------||
 |------7------7------7-------------||

 


 


 Riff B [1:02]


 


 Riff D [1:15]


 

 
 |-------------------------|--------------------------|
 |-------------------------|--------------------------|
 |-------------------------|--------------------------|
 |-------------6-----------|-7---6--------------------|
 |-7-------------7-7-7-7-7-|---8---7-8----------------|
 |---5-5-5-5-5-------------|-----------10-7-7-7-7-7-7-|

 


 |


 

 
 |-------------------------|--------------------------|
 |-------------------------|--------------------------|
 |-------------------------|--------------------------|
 |-7-----------------------|--------------------------|
 |-------------7-----------|-8-8-7-7-5----------------|
 |---5-5-5-5-5---8-8-8-8-8-|------------7-4-4-4-4-4-4-|

 


 


 PM


 

 
 |-------------------------|-------------------------|
 |-------------------------|-------------------------|
 |-------------------------|-------------------------|
 |-------------6-----------|------12-9-----9---------|
 |-7-------------7-7-7-7-7-|-12-8--------7-8--10\----|
 |---5-5-5-5-5-------------|-----------0-------------|

 


 |


 

 
 |-------------------------|-------------------------|
 |-------------------------|-------------------------|
 |-------------------------|-------------------------|
 |-7-----------------------|-------9-6-----6---------|
 |-------------7-----------|--8-5------8-5-5--10\----|
 |---5-5-5-5-5---8-8-8-8-8-|-------------------------|
 |-------------------------------------------------|
 |-------------------------------------------------|
 |-------------------------------------------------|
 |-------------------------6-6---------------------|
 |-----------------------------7-7-7-7-7-7-7-7-7-7-|
 |-5-5-5-5-5-5-5-5-5-5-5-5-------------------------|

 


 |


 

 
 |-------------------------------------------------|
 |-------------------------------------------------|
 |-------------------------------------------------|
 |-------------------------------------------------|
 |-------------------------------------------------|
 |-5-5-5-5-5-5-5-5-5-5-5-5-8-8-8-8-8-8-8-8-8-8-8-8-|
 |---------------------------------------------------|
 |---------------------------------------------------|
 |---------------------------------------------------|
 |-7-7-----6-6---------------------------------------|
 |-----8-8-----7-7-8-8-------------------------------|
 |---------------------10-10-7-7-7-7-7-7-7-7-7-7-7-7-|

 


 |


 

 
 |---------------------------------------------------|
 |---------------------------------------------------|
 |---------------------------------------------------|
 |---------------------------------------------------|
 |-8-8-5-5-7-7-3-3-5-5-------------------------------|
 |----------------------7--7-4-4-4-4-4-4-4-4-4-4-4-4-|
 PM--------| PM-------------------------| PM--------|
 |-----------------------------|-------------------------------|
 |-----------------------------|-------------------------------|
 |-----------------------------|-------------------------------|
 |---------------6-------------|------12-9------9--------------|
 |-7---------------7-7-7-7-7-7-|-12-8------11-8---11-8----11---|
 |---5-5-5-5-5-5---------------|-----------------------10----7-|

 


 |


 

 
 | PM--------| PM--------|
 |-----------------------------|-------------------------------|
 |-----------------------------|-------------------------------|
 |-----------------------------|---------------------7--4------|
 |-----------------------------|-------9-6------6--3-----------|
 |-7-------------7-------------|--8-5-------8-5------------7---|
 |---5-5-5-5-5-5---8-8-8-8-8-8-|-----------------------------4-|

 


 


 Riff E [1:29]


 

 
 PM--------| PM--| PM--------------------------|
 ||---------------------------|----------------------------------||
 ||o--------------------------|---------------------------------o||
 ||---------------------------|----------------------------------||
 ||--7\-------------3-------9-|-6--------------------------------||
 ||o--------------------------|---------------------------------o||
 ||--5\-0-0-0-0-0-0-1-0-0-0-7-|-4-0-0-0-0-0-0-0-0-0-0-0-0-0-0-0--||

 


 |


 

 
 | PM--------| PM--| PM--------------------------|
 ||---------------------------|----------------------------------||
 ||o--------------------------|---------------------------------o||
 ||---------------------------|----------------------------------||
 ||--7\-------------3-------9-|-6--------------------------------||
 ||o--------------------------|---------------------------------o||
 ||--5\-0-0-0-0-0-0-1-0-0-0-7-|-4-0-0-0-0-0-0-0-0-0-0-0-0-0-0-0--||
 PM--------| PM--| PM--------------------------|
 |----------------------------|---------------------------------|
 |----------------------------|---------------------------------|
 |----------------------------|---------------------------------|
 |--7\-------------3--------9-|-6-------------------------------|
 |----------------------------|---------------------------------|
 |--5\-0-0-0-0-0-0-1-0-0-0--7-|-4-0-0-0-0-0-0-0-0-0-0-0-0-0-0-0-|

 


 |


 

 
 | PM--------| PM--| PM--------------------------|
 |----------------------------|---------------------------------|
 |----------------------------|---------------------------------|
 |----------------------------|---------------------------------|
 |-10--------------7-------12-|-9-------------------------------|
 |----------------------------|---------------------------------|
 |--8--0-0-0-0-0-0-5-0-0-0-10-|-7-0-0-0-0-0-0-0-0-0-0-0-0-0-0-0-|
 PM--------| PM--| PM--------------------------|
 |---------------------------|------------------------------------|
 |---------------------------|------------------------------------|
 |---------------------------|------------------------------------|
 |--9--------------7-------3-|-2----------------------------------|
 |---------------------------|------------------------------------|
 |--7-0-0-0-0-0-0--5-0-0-0-1-|-0-0-0-0-0-0-0-0-0-0-0-0-0-0-0-0----|

 


 |


 

 
 | PM--------| PM--| PM--------------------------|
 |---------------------------|------------------------------------|
 |---------------------------|------------------------------------|
 |---------------------------|------------------------------------|
 |-12-------------10-------7-|-9----------------------------------|
 |---------------------------|------------------------------------|
 |-10-0-0-0-0-0-0--8-0-0-0-5-|-7-0-0-0-0-0-0-0-0-0-0-0-0-0-0-0----|

 


 


 Guitar Solo [1:43]


 Gtrs I, II


 

 
 PM---------| PM---------| PM---------| PM------|
 |-------------------------------------|-------------------------------|
 |-------------------------------------|-------------------------------|
 |-------------------------------------|-------------------------------|
 |-------------------------------------|-------------------------------|
 |--8-----------------7----------------|--5----------------7-----------|
 |-----5--5--5--5--5-----5--5--5--5--5-|----5-5-5---5---5----5-5-5-5-5-|

 


 |


 | Gtr V


 | ~~~~~~~~~~~~~ ~~


 

 
 |-16----13----------------------------|-------------------------------|
 |----17----15-17-13-15-12-13----------|-------------------------------|
 |----------------------------14-16-13-|-14-------(14)-13--------------|
 |-------------------------------------|------------------15-----------|
 |-------------------------------------|-------------------------------|
 |-------------------------------------|-------------------------------|
 PM---------| PM---------| PM---------| PM------|
 |-------------------------------------|---------------------------------|
 |-------------------------------------|---------------------------------|
 |-------------------------------------|---------------------------------|
 |--6----------------------------------|---------------------------------|
 |--------------------8----------------|--7----------------5-------------|
 |-----0--0--0--0--0-----0--0--0--0--0-|----0-0-0---0---0----0-0-0-0-0---|

 


 |


 | ~~~~~~~~~~~~~ ~~


 

 
 |-------------------------------------|---------------------------------|
 |-17-13-15----------------------------|---------------------------------|
 |----------16-17-14-16----14----------|---------------------------------|
 |----------------------18----15-18-14-|---------------14-15-------------|
 |-------------------------------------|-17-------(17)-------------------|
 |-------------------------------------|---------------------------------|

 


 


 Gtr I


 

 
 PM---------| PM---------|
 |-------------------------------------|
 |-------------------------------------|
 |-------------------------------------|
 |-------------------------------------|
 |--8-----------------7----------------|
 |-----5--5--5--5--5-----5--5--5--5--5-|

 


 |


 | Gtr II


 

 
 | PM---------| PM---------|
 |-------------------------------------|
 |-------------------------------------|
 |-------------------------------------|
 |-------------------------------------|
 |--8-----------------7----------------|
 |-----5--5--5--5--5-----5--5--5--5--5-|

 


 |


 | Gtr V


 

 
 |-13----------------------------------|
 |----15-17-13-15----------------------|
 |----------------16-17-14-16----14----|
 |----------------------------18----15-|
 |-------------------------------------|
 |-------------------------------------|
 PM-------------------| PM-------------------|
 |------------------------------------------------------------------------------|
 |------------------------------------------------------------------------------|
 |------------------------------------------------------------------------------|
 |------------------------------------------------------------------------------|
 |--5-------------------------------7-------------------------------------------|
 |-------5----5-----5----5----5----------5----5-----5----5----5-----------------|

 


 |


 

 
 | PM-------------------| PM-------------------|
 |------------------------------------------------------------------------------|
 |------------------------------------------------------------------------------|
 |------------------------------------------------------------------------------|
 |------------------------------------------------------------------------------|
 |--5-------------------------------7-------------------------------------------|
 |-------5----5-----5----5----5----------5----5-----5----5----5-----------------|

 


 |


 

 
 |------------------------------------------------------------------------------|
 |------------------------------------------------------------------------------|
 |------------------------------------------------------------------------------|
 |-14h15h==18p==15-14h15p==14------14p12p==10------10h12p==10-------------------|
 |------------------------------17--------------14--------------14-15p14p12-14--|
 |------------------------------------------------------------------------------|

 


 


 Gtr I


 

 
 PM-------------------------| PM----------------------|
 |----------------------------------------------------------------------------|
 |----------------------------------------------------------------------------|
 |----------------------------------------------------------------------------|
 |------------------------------------------9---------------------------------|
 |---7------------------------------------------------------------------------|
 |---------0-------0-----0----0-------0----------0-------0----0---0------0----|

 


 |


 | Gtr II


 

 
 | PM-------------------------| PM----------------------|
 |----------------------------------------------------------------------------|
 |----------------------------------------------------------------------------|
 |----------------------------------------------------------------------------|
 |----------------------------------------------------------------------------|
 |---7-------------------------------------11---------------------------------|
 |---------0-------0-----0----0-------0----------0-------0----0---0------0----|

 


 |


 | Gtr V


 

 
 |----------------------------------------------------------------------------|
 |----------------------------------------------------------------------------|
 |----------------------------------------------------------------------------|
 |---------------------------------------------------------------------8------|
 |-(14)p12p==11------11h12p11------11---------------------------8h==11-----11p|
 |--------------13--------------13------13-12h13p==12p10---8h11---------------|
 PM----------------------| ~~
 |--------------------------------------|
 |--------------------------------------|
 |--------------------------------------|
 |-10--------------------------------9--|
 |--------------------------------------|
 |------0-----0----0----0-------0-------|

 


 |


 

 
 | PM----------------------| ~~
 |--------------------------------------|
 |--------------------------------------|
 |--------------------------------------|
 |--------------------------------------|
 |-12-------------------------------11--|
 |------0-----0----0----0-------0-------|

 


 |


 | ~~


 

 
 |--------------------------------------|
 |--------------------------------------|
 |--------------------------------------|
 |--------------------------------------|
 |--8-7h==8p7---------------------------|
 |--------------10p8h10h==12p10p==8-10--|

 


 


 Gtrs I, II


 

 
 PM---------------------------------------------------------------------------
 |-----------------------------------------|------------------------------------|
 |-----------------------------------------|------------------------------------|
 |-----------------------------------------|------------------------------------|
 |-----------------------------------------|------------------------------------|
 |----------------------7------------------|--8-----7-----5---------------------|
 |--8-5--5--5--5--5--5----8--8--8--8--8--8-|----10-----8-----7--4--4--4--4--4--4|

 


 |


 | Gtr V


 

 
 | PM--------------| PM---------| PM| PM-----
 |-----------------------------------------|------------------------------------|
 |-----------------------------------------|------------------------------------|
 |---------------------13------------------|-13-------16-14-13-14-13------------|
 |------------12-14-15------15-14-12-14-15-|----15-14----------------15-12-15-14|
 |-12---14-15------------------------------|------------------------------------|
 |-----------------------------------------|------------------------------------|
 ----------------------------------------------------------------------------|
 |-----------------------------------------|------------------------------------|
 |-----------------------------------------|------------------------------------|
 |-----------------------------------------|------------------------------------|
 |-----------------------------------------|------------------------------------|
 |----------------------7------------------|--8-----7-----5---------------------|
 |--8-5--5--5--5--5--5----8--8--8--8--8--8-|----10-----8-----7--4--4--4--4--4--4|

 


 |


 

 
 |------------------|
 |-----------------------------------------|------------------------------------|
 |--------------------------------13-15-17-|-15-13----13------------------------|
 |---------------------13---14-16----------|-------16----14-16-13-14----13------|
 |------------12-14-15---------------------|-------------------------15----14-15|
 |-12---14-15------------------------------|------------------------------------|
 |-----------------------------------------|------------------------------------|
 PM---------------------------------------------------------------------------
 |-----------------------------------------|------------------------------------|
 |-----------------------------------------|------------------------------------|
 |-----------------------------------------|------------------------------------|
 |-----------------------------------------|------------------------------------|
 |----------------------7------------------|--8-----7-----5---------------------|
 |--8-5--5--5--5--5--5----8--8--8--8--8--8-|----10-----8-----7--4--4--4--4--4--4|

 


 |


 

 
 | PM--------------| PM---------| PM| PM---
 |-----------------------------------------|------------------------------------|
 |-----------------------------------------|------------------------------------|
 |---------------------13------------------|-13-------16-14-13-14-13----13------|
 |------------12-14-15------15-14-12-14-15-|----15-14----------------15----15-14|
 |-12---14-15------------------------------|------------------------------------|
 |-----------------------------------------|------------------------------------|
 ----------------------------------------------------------------------------|
 |-----------------------------------------|------------------------------------|
 |-----------------------------------------|------------------------------------|
 |-----------------------------------------|------------------------------------|
 |-----------------------------------------|------------------------------------|
 |----------------------7------------------|--8-----7-----5---------------------|
 |--8-5--5--5--5--5--5----8--8--8--8--8--8-|----10-----8-----7--4--4--4--4--4--4|

 


 |


 

 
 |---------|
 |--------------------------------13-16-17-|-16-13-16-17-19-17-16-17-19S20-19-17|
 |---------------------13---15-17----------|------------------------------------|
 |------------13-14-16---------------------|------------------------------------|
 |-12---14-15------------------------------|------------------------------------|
 |-----------------------------------------|------------------------------------|
 |-----------------------------------------|------------------------------------|

 


 


 Riff F1 [2:10]


 Guitar VI plays the slow riff heard in the background


 


 Gtrs I, II


 

 
 |-------------------------------|---------------------------|
 |-------------------------------|---------------------------|
 |-------------------------------|---------------------------|
 |--7----------------------------|-(7)-----------------------|
 |--7----------------------------|-(7)-----------------------|
 |--5----------------------------|-(5)-----------------------|

 


 |


 | Gtr VI


 

 
 |-------------------------------|---------------------------|
 |-------------------------------|---------------------------|
 |-------------------------------|---------------------------|
 |--7----------7-----7-----7-----|--6------6-----6-----6-----|
 |---------0-0---0-0---0-0---0-0-|-----0-0---0-0---0-0---0-0-|
 |-------------------------------|---------------------------|

 


 |


 | Gtr V


 | >


 

 
 |-17b18.5-----------------------|---------------------------|
 |-------------------------------|---------------------------|
 |-------------------------------|---------------------------|
 |-------------------------------|---------------------------|
 |-------------------------------|---------------------------|
 |-------------------------------|---------------------------|

 


 


 Gtr I


 

 
 |-------------------------|----------------------------|
 |-------------------------|----------------------------|
 |-------------------------|----------------------------|
 |-3-----------------------|-(3)------------------------|
 |-3-----------------------|-(3)------------------------|
 |-1-----------------------|-(1)------------------------|

 


 |


 | Gtr II


 

 
 |-------------------------|----------------------------|
 |-------------------------|----------------------------|
 |-------------------------|----------------------------|
 |-3-----------------------|-(3)------------------------|
 |-3-----------------------|-(3)-----------/7-----------|
 |-1-----------------------|-(1)-----------/4-----------|

 


 |


 | Gtr VI


 

 
 |-------------------------|----------------------------|
 |-------------------------|----------------------------|
 |-------------------------|----------------------------|
 |-------------------------|----------------------------|
 |-8-----8-----8-----8-----|--8------8------7-----7-----|
 |---5-5---5-5---5-5---5-5-|-----5-5---5-5----4-4---4-4-|
 |-------------------------|-----------------------------|
 |-------------------------|-----------------------------|
 |-------------------------|-----------------------------|
 |-7-----------------------|--(7)------------------------|
 |-7-----------------------|--(7)------------------------|
 |-5-----------------------|--(5)------------------------|

 


 |


 

 
 |-------------------------|-----------------------------|
 |-------------------------|-----------------------------|
 |-------------------------|-----------------------------|
 |-7-----------------------|-----------------------------|
 |-7-----------------------|-/12------------11-----------|
 |-5-----------------------|-----------------------------|

 


 |


 

 
 |-------------------------|-----------------------------|
 |-------------------------|-----------------------------|
 |-------------------------|-----------------------------|
 |-7-----7-----7-----7-----|---6------6------6-----6-----|
 |---0-0---0-0---0-0---0-0-|------0-0---0-0----0-0---0-0-|
 |-------------------------|-----------------------------|
 |-------------------------|-----------------------------------------|
 |-------------------------|-----------------------------------------|
 |-------------------------|---------------------/16-16---16---16----|
 |-3-----------------------|-(3)-------------------------------------|
 |-3-----------------------|-(3)-----------------/14-14---14---14----|
 |-1-----------------------|-(1)-------------------------------------|

 


 |


 

 
 |-------------------------|-----------------------------------------|
 |-------------------------|-----------------------------------------|
 |-------------------------|-----------------------------------------|
 |-3-----------------------|-(3)-------------------------------------|
 |-3-----------------------|-(3)-------------------7--7----7----7----|
 |-1-----------------------|-(1)-------------------4--4----4----4----|

 


 |


 

 
 |-------------------------|-----------------------------------------|
 |-------------------------|-----------------------------------------|
 |-------------------------|-----------------------------------------|
 |-------------------------|-----------------------------------------|
 |-8-----8-----8-----8-----|--8------8-----7-------7-----------------|
 |---5-5---5-5---5-5---5-5-|-----5-5---5-5---4-4--------4----4-------|

 


 


 Riff F2 [2:24]


 You can still hear guitar VI slightly


 


 Gtrs I, II


 

 
 ||--------------------------------------------------|
 ||o-------------------------------------------------|
 ||--------------------------------------------------|
 ||--7-7-7-7-7-7-2-2-2-2-2-2-2-2-2-2-2-2-7-7-7-7-7-7-|
 ||o-------------------------------------------------|
 ||--5-5-5-5-5-5-0-0-0-0-0-0-0-0-0-0-0-0-5-5-5-5-5-5-|

 


 |


 | Gtr VI


 

 
 ||--------------------------------------------------|
 ||o-------------------------------------------------|
 ||--------------------------------------------------|
 ||--7-----------7-----------7-----------7-----------|
 ||o-----0---0-------0---0-------0---0-------0---0---|
 ||--------------------------------------------------|
 |----------------------------------------------------|
 |----------------------------------------------------|
 |-------------------------------------4-4-4-4-4-4----|
 |-9-9-9-9-9-9-2-2-2-2-2-2-2-2-2-2-2-2----------------|
 |-------------------------------------2-2-2-2-2-2----|
 |-7-7-7-7-7-7-0-0-0-0-0-0-0-0-0-0-0-0----------------|

 


 |


 

 
 |----------------------------------------------------|
 |----------------------------------------------------|
 |----------------------------------------------------|
 |-6-----------6-----------6-----------6--------------|
 |-----0---0-------0---0-------0---0-------0---0------|
 |----------------------------------------------------|
 |-------------------------------------------------|
 |-------------------------------------------------|
 |-5-5-5-5-5-5-------------------------------------|
 |-------------3-3-3-3-3-3-3-3-3-3-3-3-3-3-3-3-3-3-|
 |-3-3-3-3-3-3-------------------------------------|
 |-------------1-1-1-1-1-1-1-1-1-1-1-1-1-1-1-1-1-1-|

 


 |


 

 
 |-------------------------------------------------|
 |-------------------------------------------------|
 |-------------------------------------------------|
 |-------------------------------------------------|
 |-8-----------8-----------8-----------8-----------|
 |-----5---5-------5---5-------5---5-------5---5---|
 |--------------------------------------------------------||
 |-------------------------------------------------------o||
 |--------------------------------------------------------||
 |-3-3-3-3-3-3-3-3-3-3-3-3-10-10-10-10-10-10-9-9-9-9-9-9--||
 |-------------------------------------------------------o||
 |-1-1-1-1-1-1-1-1-1-1-1-1--8--8--8--8--8--8-7-7-7-7-7-7--||

 


 |


 

 
 |--------------------------------------------------------||
 |-------------------------------------------------------o||
 |--------------------------------------------------------||
 |--------------------------------------------------------||
 |-8-----------8------------7----------------7-----------o||
 |-----5---5-------5---5----------4-----4--------4---4----||

 


 


 Transition [2:37]


 Gtr I


 

 
 PM----| PM-----------------------------------------
 |---------------------------|---------------------------|
 |---------------------------|---------------------------|
 |---------------------------|---------------------------|
 |---------------------------|-------6-7-6---6-----------|
 |---------7S8---------------|--7--8-------8---8-7-8-7-5-|
 |-0-0-0-0-----0-0-0-0-0-0-0-|---------------------------|

 


 |


 | Gtr II


 

 
 |---------------------------|---------------------------|
 |---------------------------|---------------------------|
 |---------------------------|---------------------------|
 |-2-------------------------|-(2)-------------------3---|
 |-2-------------------------|-(2)-------------------3---|
 |-0-------------------------|-(0)-------------------1---|
 -------| PM----------| ~~~ ~
 |---------------------------|------------------------|
 |---------------------------|------------------------|
 |---------------------------|------------------------|
 |---------------------------|--6-7-(7)---------------|
 |---------7S8---------------|-----------7----5-------|
 |-0-0-0-0-----0-0-0-0-0-0-0-|------------------------|

 


 |


 | ~ ~


 

 
 |---------------------------|------------------------|
 |---------------------------|------------------------|
 |---------------------------|------------------------|
 |-2-------------------------|------------------------|
 |-2-------------------------|-/7-8-------------------|
 |-0-------------------------|-----------8h10p8--7----|

 


 


 Riff A [2:44]


 


 Riff B [2:58]


 


 Riff D [3:12]


 


 The last measure here is a bit different for the second guitar


 


 

 
 PM--------| PM-------------------------| PM--------|
 |-----------------------------|-------------------------------|--------*|
 |-----------------------------|-------------------------------|--------*|
 |-----------------------------|-------------------------------|--------*|
 |---------------6-------------|------12-9------9--------------|-7------*|
 |-7---------------7-7-7-7-7-7-|-12-8------11-8---11-8----11---|--------*|
 |---5-5-5-5-5-5---------------|-----------------------10----7-|-5------*|

 


 |


 

 
 | PM--------| PM--------|
 |-----------------------------|-------------------------------|--------*|
 |-----------------------------|-------------------------------|--------*|
 |-----------------------------|-------------------------------|--------*|
 |-----------------------------|-------9-6------6--3-----------|--------*|
 |-7-------------7-------------|--8-5-------8-5------------7---|-7------*|
 |---5-5-5-5-5-5---8-8-8-8-8-8-|---------------------8--5----4-|-5------*|

 


 


 Tablature Legend


 

 
 ----------------

 


 h - hammer-on


 p - pull-off


 b - bend


 pb - pre-bend


 r - bend release (if no number after the r, then release immediately)


 /\ - slide into or out of (from/to "nowhere")


 s - legato slide


 S - shift slide


 - natural harmonic


 [n] - artificial harmonic


 n(n) - tapped harmonic


 ~ - vibrato


 tr - trill


 T - tap


 TP - trem. picking


 PM - palm muting


 \n/ - tremolo bar dip; n = amount to dip


 \n - tremolo bar down


 n/ - tremolo bar up


 /n\ - tremolo bar inverted dip


 = - hold bend; also acts as connecting device for hammers/pulls


 - volume swell (louder/softer)


 x - on rhythm slash represents muted slash


 o - on rhythm slash represents single note slash


 


 Misc Legend


 

 
 -----------


Important: The song above is NOT stored on the Chordie server. The original song is hosted at www.guitaretab.com. Chordie works as a search engine and provides on-the-fly formatting. Chordie does not index songs against artists'/composers' will. To remove this song please click here.

This song is displayed as text-only. Transposing and tuning is only available for chordpro-songs.
Rate #1 of 2 versions

Jango Player

Login - add to songbook

SHARE PAGE  




You need to log in to post comments