Guitar Tabs, Chords and Lyrics
Server problems seems to be fixed. Chordie has been experiencing problems with songs disappearing. These issues now seems to be fixed, but still verifying the fix. If you find anything strange, please email admin@chordie.com.


Hymn for the Wretched   The Black Dahlia Murder

 
 |-----------------|-----------------|
 |-----------------|-----------------|
 |-----------------|-----------------|
 |-2---------------|-----------------|
 |-2---------------|-----------------|
 |-0---------------|-----------------|

 


 |


 | Gtr II


 | PM--| PM--|


 

 
 |-----------------|-----------------|
 |-----------------|-----------------|
 |-9--------10--7--|-9--------10--7--|
 |-----------------|-----------------|
 |-7---------8--5--|-7---------8--5--|
 |----0-0-0--------|----0-0-0--------|
 |---------------------|---------------------|
 |---------------------|---------------------|
 |---------------------|---------------------|
 |---------------------|---------------------|
 |---------------------|---------------------|
 |---------------------|---------------------|

 


 |


 

 
 | PM--| PM--| PM--|
 |---------------------|---------------------|
 |---------------------|---------------------|
 |-10--------10--------|-10S12-------12--13--|
 |---------------------|---------------------|
 |--8---------8--------|--8S10-------10--11--|
 |-----0-0-0-----0-0-0-|-------0-0-0---------|

 


 


 Gtr I


 

 
 PM-------------------| PM--| PM--|
 |-----------------|-----------------|-------------------|--------|
 |-----------------|-----------------|-------------------|--------|
 |----------10--7--|-9--------10--7--|-5--------5--------|--------|
 |----------10--7--|-9--------10--7--|-------------------|-7------|
 |-----------8--5--|-7---------8--5--|-3--------3--------|--------|
 |-----------8--5--|-7---------8--5--|----0-0-0----0-0-0-|-5------|

 


 |


 | Gtr II


 

 
 | PM--| PM--| PM--| PM--|
 |-----------------|-----------------|-------------------|--------|
 |-----------------|-----------------|-------------------|--------|
 |-9--------10--7--|-9--------10--7--|-5--------5--------|--------|
 |-----------------|-----------------|-------------------|-7------|
 |-7---------8--5--|-7---------8--5--|-3--------3--------|--------|
 |----0-0-0--------|----0-0-0--------|----0-0-0----0-0-0-|-5------|

 


 


 Verse


 Gtrs I, II


 PM--| PM--|


 

 
 |-----------------|-----------------|
 |-----------------|-----------------|
 |-9--------10--7--|-9--------10--7--|
 |-----------------|-----------------|
 |-7---------8--5--|-7---------8--5--|
 |----0-0-0--------|----0-0-0--------|
 PM--| PM--| PM--|
 |---------------------|----------------------|
 |---------------------|----------------------|
 |-10--------10--------|-10S12-------12--13---|
 |---------------------|----------------------|
 |--8---------8--------|--8S10-------10--11---|
 |-----0-0-0-----0-0-0-|-------0-0-0----------|

 


 


 Gtrs I, II


 PM--| PM--| PM| PM| PM| PM|


 

 
 |-----------------|-----------------|---------------|-----------------|
 |-----------------|-----------------|---------------|-----------------|
 |-9--------10--7--|-9--------10--7--|-5------5------|-----------------|
 |-----------------|-----------------|-5------5------|-7------7--------|
 |-7---------8--5--|-7---------8--5--|-3------3------|-7------7--------|
 |----0-0-0--------|----0-0-0--------|----0-0----0-0-|-5--0-0-5--0-0---|

 


 


 Gtr I


 PM--| PM--|


 

 
 |------------------|------------------|
 |------------------|------------------|
 |--9--------10--7--|--9--------10--7--|
 |------------------|------------------|
 |--7---------8--5--|--7---------8--5--|
 |-----0-0-0--------|-----0-0-0--------|

 


 |


 | Gtr II


 | PM--| PM--|


 

 
 |------------------|------------------|
 |------------------|------------------|
 |------------------|------------------|
 |------------------|------------------|
 |-11--------12--8--|-11--------12--8--|
 |-----0-0-0--------|-----0-0-0--------|
 PM--| PM--| PM--|
 |---------------------|----------------------|
 |---------------------|----------------------|
 |-10--------10--------|-10S12-------12--13---|
 |---------------------|----------------------|
 |--8---------8--------|--8S10-------10--11---|
 |-----0-0-0-----0-0-0-|-------0-0-0----------|

 


 |


 

 
 | PM--| PM--| PM--|
 |---------------------|----------------------|
 |---------------------|----------------------|
 |---------------------|----------------------|
 |---------------------|----------------------|
 |-12--------12--------|-12S14-------14--15---|
 |-----0-0-0-----0-0-0-|-------0-0-0----------|

 


 


 Gtr I


 PM--| PM--| PM| PM| PM|


 

 
 |------------------|------------------|---------------|---------------|
 |------------------|------------------|---------------|---------------|
 |--9--------10--7--|--9--------10--7--|-5------5------|---------------|
 |------------------|------------------|-5------5------|-7------7-9-7--|
 |--7---------8--5--|--7---------8--5--|-3------3------|-7------7-9-7--|
 |-----0-0-0--------|-----0-0-0--------|----0-0----0-0-|-5--0-0-5-7-5--|

 


 |


 | Gtr II


 | PM--| PM--| PM| PM| PM|


 

 
 |------------------|------------------|---------------|---------------|
 |------------------|------------------|---------------|---------------|
 |------------------|------------------|-5------5------|---------------|
 |------------------|------------------|-5------5------|-7------7-9-7--|
 |-11--------12--8--|-11--------12--8--|-3------3------|-7------7-9-7--|
 |-----0-0-0--------|-----0-0-0--------|----0-0----0-0-|-5--0-0-5-7-5--|

 


 


 Pre-Chorus


 Gtrs I, II


 

 
 ||--------------------------|-------------------------|
 ||o-------------------------|-------------------------|
 ||--------------------------|-------------------------|
 ||--------------------------|-------------------------|
 ||o-------------------7-7-7-|-------------------6-6-6-|
 ||--0-0-0-5-5-5-8-8-8-------|-0-0-0-4-4-4-7-7-7-------|

 


 


 1.,2.,3.


 4x


 

 
 |-------------------------|-----------------------------||
 |-------------------------|----------------------------o||
 |-------------------------|-----------------------------||
 |-------------------------|-----------------------------||
 |-------------------7-7-7-|-8-8-8-7-7-7----------------o||
 |-0-0-0-5-5-5-8-8-8-------|-------------7-7-7-4-4-4-----||

 


 


 4.


 Gtrs I, II


 

 
 PM---------|
 |------------------|
 |------------------|
 |---------6--------|
 |-10--7---6---6----|
 |-10--7---4---6----|
 |--8--5--(4)--4----|

 


 


 Chorus


 Gtr I


 PM PM PM


 

 
 ||-------------------|-------------|-------------------|-----------------|
 ||o------------------|-------------|-------------------|-----5-----------|
 ||-------------------|-------------|---------------9-5-|-8---------------|
 ||--(7)-(7)-6-----3--|-3------3----|-(7)-(7)-6---------|---9---9-7-6-----|
 ||o------------------|-------------|-------------------|-----------------|
 ||---5---5--4--0--1--|-1--x-x-1----|--5---5--4--0------|--------------5--|

 


 |


 | Gtr II


 | PM PM PM


 

 
 ||-------------------|-------------|-------------------|-----------------|
 ||o------------------|-------------|-------------------|-----------------|
 ||-------------------|-------------|---------------5-2-|-4---2-----------|
 ||--(7)-(7)-6-----3--|-3------3----|-(7)-(7)-6---------|---5---6-4-2-----|
 ||o------------------|-------------|-------------------|-----------------|
 ||---5---5--4--0--1--|-1--x-x-1----|--5---5--4--0------|--------------5--|

 


 


 1.


 Gtr I


 PM PM


 

 
 |------------------|-------------|------------------|-------------||
 |------------------|-------------|------------------|------------o||
 |------------------|-------------|---------------5--|----4--------||
 |-(7)-(7)-6-----3--|-3------3----|-(7)-(7)-6--------|-7-----5-----||
 |------------------|-------------|------------------|------------o||
 |--5---5--4--0--1--|-1--x-x-1----|--5---5--4--0-----|-------------||

 


 |


 | Gtr II


 | PM PM


 

 
 |------------------|-------------|------------------|-------------||
 |------------------|-------------|------------------|------------o||
 |------------------|-------------|------------------|-------------||
 |-(7)-(7)-6-----3--|-3------3----|-(7)-(7)-6-----7--|----6--------||
 |------------------|-------------|------------------|-8-----7----o||
 |--5---5--4--0--1--|-1--x-x-1----|--5---5--4--0-----|-------------||

 


 


 2.


 [3/4]  

 
 |------------|
 |------------|
 |----4-------|
 |-7-----5----|
 |------------|
 |------------|

 


 |


 

 
 |------------|
 |------------|
 |------------|
 |----6-------|
 |-8-----7----|
 |------------|

 


 


 Verse


 [4/4] Gtrs I, II


 PM--| PM--|


 

 
 |-----------------|-----------------|
 |-----------------|-----------------|
 |-9--------10--7--|-9--------10--7--|
 |-----------------|-----------------|
 |-7---------8--5--|-7---------8--5--|
 |----0-0-0--------|----0-0-0--------|
 PM--| PM--| PM--|
 |---------------------|---------------------|
 |---------------------|---------------------|
 |-10--------10--------|-10S12-------12--13--|
 |---------------------|---------------------|
 |--8---------8--------|--8S10-------10--11--|
 |-----0-0-0-----0-0-0-|-------0-0-0---------|

 


 


 Gtrs I, II


 PM--| PM--| PM| PM| PM| PM|


 

 
 |-----------------|-----------------|---------------|-----------------|
 |-----------------|-----------------|---------------|-----------------|
 |-9--------10--7--|-9--------10--7--|-5------5------|-----------------|
 |-----------------|-----------------|-5------5------|-7------7--------|
 |-7---------8--5--|-7---------8--5--|-3------3------|-7------7--------|
 |----0-0-0--------|----0-0-0--------|----0-0----0-0-|-5--0-0-5--0-0---|

 


 


 Gtr I


 PM--| PM--|


 

 
 |------------------|------------------|
 |------------------|------------------|
 |--9--------10--7--|--9--------10--7--|
 |------------------|------------------|
 |--7---------8--5--|--7---------8--5--|
 |-----0-0-0--------|-----0-0-0--------|

 


 |


 | Gtr II


 | PM--| PM--|


 

 
 |------------------|------------------|
 |------------------|------------------|
 |------------------|------------------|
 |------------------|------------------|
 |-11--------12--8--|-11--------12--8--|
 |-----0-0-0--------|-----0-0-0--------|
 PM--| PM--| PM--|
 |---------------------|----------------------|
 |---------------------|----------------------|
 |-10--------10--------|-10S12-------12--13---|
 |---------------------|----------------------|
 |--8---------8--------|--8S10-------10--11---|
 |-----0-0-0-----0-0-0-|-------0-0-0----------|

 


 |


 

 
 | PM--| PM--| PM--|
 |---------------------|----------------------|
 |---------------------|----------------------|
 |---------------------|----------------------|
 |---------------------|----------------------|
 |-12--------12--------|-12S14-------14--15---|
 |-----0-0-0-----0-0-0-|-------0-0-0----------|

 


 


 Gtr I


 PM--| PM--| PM| PM| PM|


 

 
 |------------------|------------------|---------------|---------------|
 |------------------|------------------|---------------|---------------|
 |--9--------10--7--|--9--------10--7--|-5------5------|---------------|
 |------------------|------------------|-5------5------|-7------7-9-7--|
 |--7---------8--5--|--7---------8--5--|-3------3------|-7------7-9-7--|
 |-----0-0-0--------|-----0-0-0--------|----0-0----0-0-|-5--0-0-5-7-5--|

 


 |


 | Gtr II


 | PM--| PM--| PM| PM| PM|


 

 
 |------------------|------------------|---------------|---------------|
 |------------------|------------------|---------------|---------------|
 |------------------|------------------|-5------5------|---------------|
 |------------------|------------------|-5------5------|-7------7-9-7--|
 |-11--------12--8--|-11--------12--8--|-3------3------|-7------7-9-7--|
 |-----0-0-0--------|-----0-0-0--------|----0-0----0-0-|-5--0-0-5-7-5--|

 


 


 Pre-Chorus


 Gtrs I, II


 

 
 ||--------------------------|-------------------------|
 ||o-------------------------|-------------------------|
 ||--------------------------|-------------------------|
 ||--------------------------|-------------------------|
 ||o-------------------7-7-7-|-------------------6-6-6-|
 ||--0-0-0-5-5-5-8-8-8-------|-0-0-0-4-4-4-7-7-7-------|

 


 


 1.,2.,3.


 4x


 

 
 |-------------------------|-----------------------------||
 |-------------------------|----------------------------o||
 |-------------------------|-----------------------------||
 |-------------------------|-----------------------------||
 |-------------------7-7-7-|-8-8-8-7-7-7----------------o||
 |-0-0-0-5-5-5-8-8-8-------|-------------7-7-7-4-4-4-----||

 


 


 4.


 Gtrs I, II


 

 
 PM---------|
 |------------------|
 |------------------|
 |---------6--------|
 |-10--7---6---6----|
 |-10--7---4---6----|
 |--8--5--(4)--4----|

 


 


 Chorus


 Gtr I


 PM PM PM


 

 
 ||-------------------|-------------|-------------------|-----------------|
 ||o------------------|-------------|-------------------|-----5-----------|
 ||-------------------|-------------|---------------9-5-|-8---------------|
 ||--(7)-(7)-6-----3--|-3------3----|-(7)-(7)-6---------|---9---9-7-6-----|
 ||o------------------|-------------|-------------------|-----------------|
 ||---5---5--4--0--1--|-1--x-x-1----|--5---5--4--0------|--------------5--|

 


 |


 | Gtr II


 | PM PM PM


 

 
 ||-------------------|-------------|-------------------|-----------------|
 ||o------------------|-------------|-------------------|-----------------|
 ||-------------------|-------------|---------------5-2-|-4---2-----------|
 ||--(7)-(7)-6-----3--|-3------3----|-(7)-(7)-6---------|---5---6-4-2-----|
 ||o------------------|-------------|-------------------|-----------------|
 ||---5---5--4--0--1--|-1--x-x-1----|--5---5--4--0------|--------------5--|

 


 


 1.


 Gtr I


 PM PM


 

 
 |------------------|-------------|------------------|-------------||
 |------------------|-------------|------------------|------------o||
 |------------------|-------------|---------------5--|----4--------||
 |-(7)-(7)-6-----3--|-3------3----|-(7)-(7)-6--------|-7-----5-----||
 |------------------|-------------|------------------|------------o||
 |--5---5--4--0--1--|-1--x-x-1----|--5---5--4--0-----|-------------||

 


 |


 | Gtr II


 | PM PM


 

 
 |------------------|-------------|------------------|-------------||
 |------------------|-------------|------------------|------------o||
 |------------------|-------------|------------------|-------------||
 |-(7)-(7)-6-----3--|-3------3----|-(7)-(7)-6-----7--|----6--------||
 |------------------|-------------|------------------|-8-----7----o||
 |--5---5--4--0--1--|-1--x-x-1----|--5---5--4--0-----|-------------||

 


 


 2.


 [3/4]  

 
 |------------|
 |------------|
 |----7-------|
 |-7-----5----|
 |------------|
 |------------|

 


 |


 

 
 |------------|
 |------------|
 |------------|
 |----6-------|
 |-8-----7----|
 |------------|

 


 


 Verse


 [4/4] Gtrs I, II


 

 
 ||--------------------------------------|-------------------------|
 ||o-------------------------------------|-------------------------|
 ||--10-10-10-10-10-10-10-10-10-10-10-10-|-9-9-9-9-9-9-7-7-7-7-7-7-|
 ||--------------------------------------|-------------------------|
 ||o--8--8--8--8--8--8--8--8--8--8--8--8-|-7-7-7-7-7-7-5-5-5-5-5-5-|
 ||--------------------------------------|-------------------------|
 |-------------------------------|--------------------------|
 |-------------------------------|--------------------------|
 |-9-9-9-9-9-9-10-10-10-10-10-10-|-9-9-9-9-9-9-7-7-7-7-7-7--|
 |-------------------------------|--------------------------|
 |-7-7-7-7-7-7--8--8--8--8--8--8-|-7-7-7-7-7-7-5-5-5-5-5-5--|
 |-------------------------------|--------------------------|

 


 


 Gtrs I, II


 

 
 |-------------------------|-------------------------|
 |-------------------------|-------------------------|
 |-9-9-9-9-9-9-9-9-9-9-9-9-|-7-7-7-7-7-7-5-5-5-5-5-5-|
 |-------------------------|-------------------------|
 |-7-7-7-7-7-7-7-7-7-7-7-7-|-5-5-5-5-5-5-3-3-3-3-3-3-|
 |-------------------------|-------------------------|
 |-------------------------|----------------------------|
 |-------------------------|----------------------------|
 |-4-4-4-4-4-4-4-4-4-4-4-4-|-5-5-5-5-5-5-7-7-7-7-7-7----|
 |-------------------------|----------------------------|
 |-2-2-2-2-2-2-2-2-2-2-2-2-|-3-3-3-3-3-3-5-5-5-5-5-5----|
 |-------------------------|----------------------------|

 


 


 Gtrs I, II


 

 
 |-------------------------|-------------------------|
 |-------------------------|-------------------------|
 |-9-9-9-9-9-9-9-9-9-9-9-9-|-7-7-7-7-7-7-5-5-5-5-5-5-|
 |-------------------------|-------------------------|
 |-7-7-7-7-7-7-7-7-7-7-7-7-|-5-5-5-5-5-5-3-3-3-3-3-3-|
 |-------------------------|-------------------------|
 |-------------------------|----------------------------|
 |-------------------------|----------------------------|
 |-4-4-4-4-4-4-4-4-4-4-4-4-|-4-4-4-4-4-4-4-4-4-4-4-4----|
 |-------------------------|----------------------------|
 |-2-2-2-2-2-2-2-2-2-2-2-2-|-2-2-2-2-2-2-2-2-2-2-2-2----|
 |-------------------------|----------------------------|

 


 


 1.


 Gtr I


 

 
 |-------------------------|-------------------------------|
 |-------------------------|-------------------------------|
 |-------------------------|-------------------------------|
 |-------------------------|-------------------------------|
 |-------------------------|-------------------7-7-7-7-7-7-|
 |-0-0-0-0-0-0-7-7-7-7-7-7-|-10-10-10-10-10-10-------------|

 


 |


 | Gtr II


 

 
 |-------------------------|-------------------------------|
 |-------------------------|-------------------------------|
 |-------------------------|-------------------------------|
 |-------------------------|-------------------6-6-6-6-6-6-|
 |-------------5-5-5-5-5-5-|--8--8--8--8--8--8-------------|
 |-0-0-0-0-0-0-------------|-------------------------------|
 |-------------------------|-----------------------------||
 |-------------------------|----------------------------o||
 |-------------------------|-----------------------------||
 |-------------------------|-3-3-3-3-3-3-2-2-2-2-2-2-----||
 |-------------------------|----------------------------o||
 |-1-1-1-1-1-1-1-1-1-1-1-1-|-----------------------------||

 


 |


 

 
 |-------------------------|-----------------------------||
 |-------------------------|----------------------------o||
 |-------------------------|-----------------------------||
 |-------------3-3-3-3-3-3-|-7-7-7-7-7-7-6-6-6-6-6-6-----||
 |-------------------------|----------------------------o||
 |-1-1-1-1-1-1-------------|-----------------------------||

 


 


 2.


 Gtrs I, II


 \1____________\1 \0.25___|


 

 
 |------------|----------|--------------|
 |------------|----------|--------------|
 |------------|----------|--------------|
 |------------|----------|--------------|
 |------------|----------|--------------|
 |-0----------|-(0)------|-(0)-----(0)--|

 


 


 Guitar Solo


 Gtrs I, II


 

 
 PM--------------------------------------
 |---------------------------------------------|
 |---------------------------------------------|
 |---------------------------------------------|
 |---------------------------------------------|
 |---------------------------------------------|
 |--5----5-----5----5-----5----5-----5----5----|

 


 |


 | Gtr III


 

 
 |---------------------------------------------|
 |---------------------------------------------|
 |-14-14---14-14-14---14-14-14---14-14-14---14-|
 |---------------------------------------------|
 |---------------------------------------------|
 |---------------------------------------------|

 


 


 Gtrs I, II


 

 
 PM---------------------------------------
 |---------------------------------------------|
 |---------------------------------------------|
 |---------------------------------------------|
 |---------------------------------------------|
 |---------------------------------------------|
 |--5----5-----5----5-----5----5-----5----5----|

 


 |


 | Gtr III


 

 
 |---------------------------------------------|
 |---------------------------------------------|
 |-13-13---13-13-13---13-14-14---14-14-14---14-|
 |---------------------------------------------|
 |---------------------------------------------|
 |---------------------------------------------|
 -----------------------------------------
 |---------------------------------------------|
 |---------------------------------------------|
 |---------------------------------------------|
 |---------------------------------------------|
 |---------------------------------------------|
 |--5----5-----5----5-----5----5-----5----5----|

 


 |


 

 
 |---------------------------------------------|
 |---------------------------------------------|
 |-16-16---16-16-16---16-16-16---16-16-16---16-|
 |---------------------------------------------|
 |---------------------------------------------|
 |---------------------------------------------|
 ----------------------------------------|
 |------------------------------------------------|
 |------------------------------------------------|
 |------------------------------------------------|
 |------------------------------------------------|
 |------------------------------------------------|
 |--5----5-----5----5-----5----5-----5----5-------|

 


 |


 

 
 |------------------------------------------------|
 |------------------------------------------------|
 |-14-14---14-14-14---14-16-16---16-16-16---16----|
 |------------------------------------------------|
 |------------------------------------------------|
 |------------------------------------------------|

 


 


 Gtr I


 

 
 PM---------| PM PM---------| PM
 |-------------------------------------|-------------------------------------|
 |-------------------------------------|-------------------------------------|
 |-------------------------------------|-------------------------------------|
 |-------------------------------------|-------------------------------------|
 |--------------------7-----------8----|-------------------11-----------8----|
 |--0-----0-----0-----------0----------|--0-----0-----0-----------0----------|

 


 |


 | Gtr II


 

 
 | PM---------| PM PM---------| PM
 |-------------------------------------|-------------------------------------|
 |-------------------------------------|-------------------------------------|
 |-------------------------------------|-------------------------------------|
 |-------------------------------------|-------------------------------------|
 |--------------------7-----------8----|-------------------11-----------8----|
 |--0-----0-----0-----------0----------|--0-----0-----0-----------0----------|

 


 |


 | Gtr III


 

 
 |-------------------------------------|-------------------------------------|
 |-------------------------------------|-------------------------------------|
 |-17-17-17-17-17-17-17-17-17-17-17-17-|-16-16-16-16-16-16-17-17-17-17-17-17-|
 |-------------------------------------|-------------------------------------|
 |-------------------------------------|-------------------------------------|
 |-------------------------------------|-------------------------------------|
 PM---------| PM PM--|
 |-------------------------------------|-------------------|
 |-------------------------------------|-------------------|
 |-------------------------------------|-------------------|
 |-------------------------------------|-------------------|
 |--------------------7-----------8----|---------7--8-10---|
 |--0-----0-----0-----------0----------|--0-0-0------------|

 


 |


 

 
 | PM---------| PM PM--|
 |-------------------------------------|-------------------|
 |-------------------------------------|-------------------|
 |-------------------------------------|-------------------|
 |-------------------------------------|-------------------|
 |--------------------7-----------8----|--------10-12-14---|
 |--0-----0-----0-----------0----------|--0-0-0------------|

 


 |


 | ~~


 

 
 |-------------------------------------|-------------------|
 |-------------------------------------|-------------------|
 |-14-14-14-14-14-14-14-14-14-14-14-14-|-13----------------|
 |-------------------------------------|-------------------|
 |-------------------------------------|-------------------|
 |-------------------------------------|-------------------|

 


 


 Gtrs I, II


 

 
 PM---------------------------------------
 |---------------------------------------------|
 |---------------------------------------------|
 |---------------------------------------------|
 |---------------------------------------------|
 |---------------------------------------------|
 |--5----5-----5----5-----5----5-----5----5----|

 


 |


 | Gtr III


 

 
 |---------------------------------------------|
 |---------------------------------------------|
 |-14-14---14-14-14---14-14-14---14-14-14---14-|
 |---------------------------------------------|
 |---------------------------------------------|
 |---------------------------------------------|

 


 


 Gtrs I, II


 

 
 PM---------------------------------------
 |---------------------------------------------|
 |---------------------------------------------|
 |---------------------------------------------|
 |---------------------------------------------|
 |---------------------------------------------|
 |--5----5-----5----5-----5----5-----5----5----|

 


 |


 | Gtr III


 

 
 |---------------------------------------------|
 |---------------------------------------------|
 |-13-13---13-13-13---13-14-14---14-14-14---14-|
 |---------------------------------------------|
 |---------------------------------------------|
 |---------------------------------------------|
 ----------------------------------------|
 |---------------------------------------------|
 |---------------------------------------------|
 |---------------------------------------------|
 |---------------------------------------------|
 |---------------------------------------------|
 |--5----5-----5----5-----5----5-----5----5----|

 


 |


 

 
 |---------------------------------------------|
 |---------------------------------------------|
 |-16-16---16-16-16---16-16-16---16-16-16---16-|
 |---------------------------------------------|
 |---------------------------------------------|
 |---------------------------------------------|
 ----------------------------------------|
 |------------------------------------------------|
 |------------------------------------------------|
 |------------------------------------------------|
 |------------------------------------------------|
 |------------------------------------------------|
 |--5----5-----5----5-----5----5-----5----5-------|

 


 |


 

 
 |------------------------------------------------|
 |------------------------------------------------|
 |-14-14---14-14-14---14-16-16---16-16-16---16----|
 |------------------------------------------------|
 |------------------------------------------------|
 |------------------------------------------------|

 


 


 Gtr I


 

 
 PM---------| PM PM---------| PM
 |-------------------------------------|-------------------------------------|
 |-------------------------------------|-------------------------------------|
 |-------------------------------------|-------------------------------------|
 |-------------------------------------|-------------------------------------|
 |--------------------7-----------8----|-------------------11-----------8----|
 |--0-----0-----0-----------0----------|--0-----0-----0-----------0----------|

 


 |


 | Gtr II


 

 
 | PM---------| PM PM---------| PM
 |-------------------------------------|-------------------------------------|
 |-------------------------------------|-------------------------------------|
 |-------------------------------------|-------------------------------------|
 |-------------------------------------|-------------------------------------|
 |--------------------7-----------8----|-------------------11-----------8----|
 |--0-----0-----0-----------0----------|--0-----0-----0-----------0----------|

 


 |


 | Gtr III


 

 
 |-------------------------------------|-------------------------------------|
 |-------------------------------------|-------------------------------------|
 |-17-17-17-17-17-17-17-17-17-17-17-17-|-19-19-19-19-19-19-19-19-19-19-19-19-|
 |-------------------------------------|-------------------------------------|
 |-------------------------------------|-------------------------------------|
 |-------------------------------------|-------------------------------------|
 PM---------| PM PM--|
 |-------------------------------------|-------------------|
 |-------------------------------------|-------------------|
 |-------------------------------------|-------------------|
 |-------------------------------------|-------------------|
 |--------------------7-----------8----|--------10--7--8---|
 |--0-----0-----0-----------0----------|--0-0-0------------|

 


 |


 

 
 | PM---------| PM PM--|
 |-------------------------------------|-------------------|
 |-------------------------------------|-------------------|
 |-------------------------------------|-------------------|
 |-------------------------------------|-------------------|
 |--------------------7-----------8----|--------14-10-12---|
 |--0-----0-----0-----------0----------|--0-0-0------------|

 


 |


 | ~~


 

 
 |-------------------------------------|-------------------|
 |-------------------------------------|-------------------|
 |-21-21-21-21-21-21-21-21-21-21-21-21-|-21----------------|
 |-------------------------------------|-------------------|
 |-------------------------------------|-------------------|
 |-------------------------------------|-------------------|

 


 


 Gtrs I, II


 PM| PM|


 

 
 |---------------|---------------|-----------------|-----------------|
 |---------------|---------------|-----------------|-----------------|
 |---------------|---------------|-----------------|-----------------|
 |---------------|---------------|-----------------|-----------------|
 |--3------------|--3------------|--3S=6--6S==7----|--7S=6--6S==3----|
 |--1-------0--0-|--1-------0--0-|--1S=4--4S==5----|--5S=4--4S==1----|

 


 |


 | Gtr III


 

 
 |---------------|---------------|-----------------|-----------------|
 |---------------|---------------|-----------------|-15-----------15-|
 |-14------13-14-|-16------14-16-|-17--------16-17-|-----------17----|
 |---------------|---------------|-----------------|-----------------|
 |---------------|---------------|-----------------|-----------------|
 |---------------|---------------|-----------------|-----------------|

 


 


 Gtrs I, II


 PM|


 

 
 |-------------|-----------------|----------------|------------------|
 |-------------|-----------------|----------------|------------------|
 |-------------|-----------------|--5S7--7-7S9--9-|---9S=7--7-7S5--5-|
 |-------------|-----------------|----------------|------------------|
 |--2----------|---2-------------|--3S5--5-5S7--7-|---7S=5--5-5S3--3-|
 |--0------0-0-|---0-------------|----------------|------------------|

 


 |


 | Gtr III


 | ~~ ~~~~~~~~~~~~~~~~~~~~~


 

 
 |-------------|-----------------|----------------|------------------|
 |-17----------|-(17)----15------|----------------|------------------|
 |-------------|-------------17--|-16-------------|-(16)-------------|
 |-------------|-----------------|----------------|------------------|
 |-------------|-----------------|----------------|------------------|
 |-------------|-----------------|----------------|------------------|

 


 


 Gtrs I, II


 

 
 PM---| PM---|
 |-----------------------|-----------------------|
 |-----------------------|-----------------------|
 |-----------------------|-----------------------|
 |-----------------------|-----------------------|
 |--3--------------------|--3--------------------|
 |--1-------------0----0-|--1-------------0----0-|

 


 |


 | Gtr III


 

 
 |-----------------------|-----------------------|
 |-----------------------|-----------------------|
 |-14-13-14-16-14---13---|-16-14-16-17-16---14---|
 |-----------------------|-----------------------|
 |-----------------------|-----------------------|
 |-----------------------|-----------------------|
 |-------------------------|-------------------------|
 |-------------------------|-------------------------|
 |-------------------------|-------------------------|
 |-------------------------|-------------------------|
 |--3S===6------6S===7-----|--7S===6------6S===3-----|
 |--1S===4------4S===5-----|--5S===4------4S===1-----|

 


 |


 

 
 |-------------------------|-------------------------|
 |-------------15----------|-15------15--17-15-------|
 |-17-16---17-----17---16--|----17---------------17--|
 |-------------------------|-------------------------|
 |-------------------------|-------------------------|
 |-------------------------|-------------------------|

 


 


 Gtrs I, II


 PM|


 

 
 |----------------------|---------------------|
 |----------------------|---------------------|
 |----------------------|---------------------|
 |----------------------|---------------------|
 |--2-------------------|--2------------------|
 |--0---------------0-0-|--0------------------|

 


 |


 | Gtr III


 

 
 |----------------------|---------------------|
 |-17-15----15----------|---------------------|
 |-------17----17--16---|-17-16-14-16-14-13---|
 |----------------------|---------------------|
 |----------------------|---------------------|
 |----------------------|---------------------|
 |--------------------|--------------------------|
 |--------------------|--------------------------|
 |-5S7--7--7S=9-----9-|--9S7-----7--7S=5-----5---|
 |--------------------|--------------------------|
 |-3S5--5--5S=7-----7-|--7S5-----5--5S=3-----3---|
 |--------------------|--------------------------|

 


 |


 | T


 

 
 |--------------------|------------16-21-16------|
 |--------------------|---------15----------15---|
 |-9S=====14-14h16-17-|-16---17------------------|
 |--------------------|--------------------------|
 |--------------------|--------------------------|
 |--------------------|--------------------------|

 


 


 Gtrs I, II


 PM---|


 

 
 |-------------------------------------------------|
 |-------------------------------------------------|
 |-------------------------------------------------|
 |-------------------------------------------------|
 |--3----------------------------------------------|
 |--1-----------------------------------0-----0----|

 


 |


 | Gtr III


 

 
 |-------------------------------------------------|
 |-------------------------------15-15-17-17-17-18-|
 |-14-14-13-13-14-14-16-16-17-17-------------------|
 |-------------------------------------------------|
 |-------------------------------------------------|
 |-------------------------------------------------|

 


 


 Gtrs I, II


 PM---|


 

 
 |-------------------------------------------------|
 |-------------------------------------------------|
 |-------------------------------------------------|
 |-------------------------------------------------|
 |--3----------------------------------------------|
 |--1-----------------------------------0-----0----|

 


 |


 | Gtr III


 

 
 |-------------------------------------------------|
 |-18-18-18-18-17-17-15-15-17-17-18-18-18-17-15-15-|
 |-------------------------------------------------|
 |-------------------------------------------------|
 |-------------------------------------------------|
 |-------------------------------------------------|
 |-------------------------------------------------|
 |-------------------------------------------------|
 |-------------------------------------------------|
 |-------------------------------------------------|
 |--3S==========6-----------6S==========7----------|
 |--1S==========4-----------4S==========5----------|

 


 |


 

 
 |-------------------------------------------------|
 |-------------------------------------------------|
 |-17-17-17-16-16-14-14-16-16-17-17-17-16-16-14-14-|
 |-------------------------------------------------|
 |-------------------------------------------------|
 |-------------------------------------------------|
 |---------------------------------------|
 |---------------------------------------|
 |---------------------------------------|
 |---------------------------------------|
 |--7S==========6--------6S=======3------|
 |--5S==========4--------4S=======1------|

 


 |


 

 
 |---------------------------------------|
 |---------------------------------------|
 |-16-16-14-14-13-13----13-13------------|
 |-------------------15-------15-14-15---|
 |---------------------------------------|
 |---------------------------------------|

 


 


 Gtrs I, II


 PM---|


 

 
 |-------------------------------------------|-------------------------|
 |-------------------------------------------|-------------------------|
 |-------------------------------------------|-------------------------|
 |-------------------------------------------|-------------------------|
 |--2----------------------------------------|--2----------------------|
 |--0-----------------------------0-----0----|--0----------------------|

 


 |


 | Gtr III


 

 
 |-------------------------------------------|-------------------------|
 |-------------------------------------------|-------------------------|
 |-13----14-14-16-17-17-17-16-16-16-17-17-17-|-14-14-14-14-14-14-14-14-|
 |----14-------------------------------------|-------------------------|
 |-------------------------------------------|-------------------------|
 |-------------------------------------------|-------------------------|
 |------------------------------------------------|
 |------------------------------------------------|
 |--5S===7-----------7-----7S====9-----------9----|
 |------------------------------------------------|
 |--3S===5-----------5-----5S====7-----------7----|
 |------------------------------------------------|

 


 |


 

 
 |------------------------------------------------|
 |------------15-17-18-18-17-15-17-18-18-17-17-15-|
 |-14-16---17-------------------------------------|
 |------------------------------------------------|
 |------------------------------------------------|
 |------------------------------------------------|
 |---------------------------------------------------|
 |---------------------------------------------------|
 |--9S====7-----------7-----7S====5-----------5------|
 |---------------------------------------------------|
 |--7S====5-----------5-----5S====3-----------3------|
 |---------------------------------------------------|

 


 |


 

 
 |---------------------------------------------------|
 |-17-17-15-15----------15-15------------------------|
 |-------------17-17-17-------17-17-16-16-16-17-17---|
 |---------------------------------------------------|
 |---------------------------------------------------|
 |---------------------------------------------------|

 


 


 Gtrs I, II


 PM---|


 

 
 |-------------------------------------------------|
 |-------------------------------------------------|
 |-------------------------------------------------|
 |-------------------------------------------------|
 |--3----------------------------------------------|
 |--1-----------------------------0-----0----------|

 


 |


 | Gtr III


 

 
 |-------------------------------------------------|
 |-------------------------------------------------|
 |-17-17-16-14-14-16-16-17-17-14-16-16-14-14-13-13-|
 |-------------------------------------------------|
 |-------------------------------------------------|
 |-------------------------------------------------|

 


 


 Gtrs I, II


 PM---|


 

 
 |-------------------------------------------------|
 |-------------------------------------------------|
 |-------------------------------------------------|
 |-------------------------------------------------|
 |--3----------------------------------------------|
 |--1-----------------------------------0-----0----|

 


 |


 | Gtr III


 

 
 |-------------------------------------------------|
 |-------------------------------------------------|
 |-14-14-13-13-------------------13-13-14-14-16-16-|
 |-------------15-15-14-14-15-15-------------------|
 |-------------------------------------------------|
 |-------------------------------------------------|
 |-------------------------------------------------|
 |-------------------------------------------------|
 |-------------------------------------------------|
 |-------------------------------------------------|
 |--3S====6--------------6S=======7----------------|
 |--1S====4--------------4S=======5----------------|

 


 |


 |


 

 
 |-------------------------------------------------|
 |-15-15-17-17-18-18-18-18-17-17-15-15-17-17-18-18-|
 |-------------------------------------------------|
 |-------------------------------------------------|
 |-------------------------------------------------|
 |-------------------------------------------------|
 |-----------------------------------------|
 |-----------------------------------------|
 |-----------------------------------------|
 |-----------------------------------------|
 |--7S=======6--------6S=======3-----------|
 |--5S=======4--------4S=======1-----------|

 


 |


 | ~~


 

 
 |-----------------------------------------|
 |-18-17-15-15-17-17-18-18-18-17-15-15-17--|
 |-----------------------------------------|
 |-----------------------------------------|
 |-----------------------------------------|
 |-----------------------------------------|

 


 


 Bridge


 Q=240


 Gtr I


 

 
 |----------------------|----------------------|-----------------|
 |----------------------|----------------------|-----------------|
 |----------------------|----------------------|-----------------|
 |----------------------|----------------------|-----------6-----|
 |----------------------|------8-7-8-----------|-----8-7-8---8-7-|
 |---0--0-0-1h4p1-0-0-0-|---0--------0-0-0-1h4p|=1-0-------------|

 


 |


 | Gtr II


 

 
 |----------------------|----------------------|-----------------|
 |----------------------|----------------------|-----------------|
 |----------------------|----------------------|-----------------|
 |----------------------|----------------------|-----7-6-7-9-7-6-|
 |----------------------|------8-7-8-----------|-----------------|
 |---0--0-0-1h4p1-0-0-0-|---0--------0-0-0-1h4p|=1-0-------------|

 


 |


 | Gtr III


 | ~~~~~~~~~~~~~~~~~~~~~~~~~~


 

 
 |----------------------|----------------------|-----------------|
 |-(17)-----------------|-(17)-----------------|-----------------|
 |----------------------|----------------------|-----------------|
 |----------------------|----------------------|-----------------|
 |----------------------|----------------------|-----------------|
 |----------------------|----------------------|-----------------|

 


 


 Gtr I


 

 
 |-------------------|-----------------|---------------------|
 |-------------------|-----------------|---------------------|
 |-------------------|-----------------|-------------7-------|
 |-------------------|---------7-6-7-9-|-7-9-10-9-10---10-9--|
 |-------------------|---8-7-8---------|---------------------|
 |-0-0-0-1h4p1-0-0-0-|-0---------------|---------------------|

 


 |


 | Gtr II


 

 
 |-------------------|-----------------|---------------------|
 |-------------------|-----------------|---------------------|
 |-------------------|-----------------|---------------------|
 |-------------------|---------------6-|---6--7-6--7-9--7-6--|
 |-------------------|---8-7-8-8-7-8---|-8-------------------|
 |-0-0-0-1h4p1-0-0-0-|-0---------------|---------------------|

 


 


 Gtr I


 

 
 ||--------------------|-------------------|-----------------|
 ||o-------------------|-------------------|-----------------|
 ||--------------------|-------------------|-----------------|
 ||--------------------|-------------------|-----------6-----|
 ||o-------------------|---8-7-8-----------|-----8-7-8---8-7-|
 ||--0-0-0-1h4p1-0-0-0-|-0-------0-0-0-1h4p|=1-0-------------|

 


 |


 | Gtr II


 

 
 ||--------------------|-------------------|-----------------|
 ||o-------------------|-------------------|-----------------|
 ||--------------------|-------------------|-----------------|
 ||--------------------|-------------------|-----7-6-7-9-7-6-|
 ||o-------------------|---8-7-8-----------|-----------------|
 ||--0-0-0-1h4p1-0-0-0-|-0-------0-0-0-1h4p|=1-0-------------|

 


 


 Gtr I


 3x


 

 
 |-------------------|-----------------|----------------------||
 |-------------------|-----------------|---------------------o||
 |-------------------|-----------------|-------------7--------||
 |-------------------|---------7-6-7-9-|-7-9-10-9-10---10-9---||
 |-------------------|---8-7-8---------|---------------------o||
 |-0-0-0-1h4p1-0-0-0-|-0---------------|----------------------||

 


 |


 | Gtr II


 | 3x


 

 
 |-------------------|-----------------|----------------------||
 |-------------------|-----------------|---------------------o||
 |-------------------|-----------------|----------------------||
 |-------------------|---------------6-|---6--7-6--7-9--7-6---||
 |-------------------|---8-7-8-8-7-8---|-8-------------------o||
 |-0-0-0-1h4p1-0-0-0-|-0---------------|----------------------||

 


 


 Pre-Verse


 Q=280


 Gtr I


 

 
 PM-------------------| PM--| PM--|
 |-----------------|-----------------|-------------------|--------|
 |-----------------|-----------------|-------------------|--------|
 |-9--------10--7--|-9--------10--7--|-5--------5--------|--------|
 |-9--------10--7--|-9--------10--7--|-------------------|-7------|
 |-7---------8--5--|-7---------8--5--|-3--------3--------|--------|
 |-----------8--5--|-7---------8--5--|----0-0-0----0-0-0-|-5------|


Important: The song above is NOT stored on the Chordie server. The original song is hosted at www.guitaretab.com. Chordie works as a search engine and provides on-the-fly formatting. Chordie does not index songs against artists'/composers' will. To remove this song please click here.

This song is displayed as text-only. Transposing and tuning is only available for chordpro-songs.
Rate #1 of 2 versions

Login - add to songbook

SHARE PAGE  



You need to log in to post comments