Guitar Tabs, Chords and Lyrics
Server problems seems to be fixed. Chordie has been experiencing problems with songs disappearing. These issues now seems to be fixed, but still verifying the fix. If you find anything strange, please email admin@chordie.com.


Novelty Crosses   The Black Dahlia Murder

 
 PM--| PM--| PM--|
 ||----------------|---------------|--------|--------------|-----------|
 ||o---------------|---------------|--------|--------------|-----------|
 ||--------16--15--|-------12--11--|--------|--------------|-----------|
 ||----------------|---------------|-8------|-(8)----------|-11----5---|
 ||o-------14--13--|-------10---9--|-6------|-(6)----------|--9----3---|
 ||--0-0-0---------|-0-0-0---------|-6------|-(6)----0-0-0-|--9----3---|

 


 |


 | Gtr II


 

 
 | PM--| PM--| PM--|
 ||----------------|---------------|--------|--------------|-----------|
 ||o---------------|---------------|--------|--------------|-----------|
 ||--------12--11--|--------9---8--|--------|--------------|-----------|
 ||----------------|---------------|-8------|-(8)----------|-11----5---|
 ||o-------10---9--|--------7---6--|-6------|-(6)----------|--9----3---|
 ||--0-0-0---------|-0-0-0---------|-6------|-(6)----0-0-0-|--9----3---|

 


 


 1.


 [3/4] [4/4]  

 
 PM--| PM--| PM--------------------------------|
 |---------------|---------------|--------|-------------|-------------------||
 |---------------|---------------|--------|-------------|------------------o||
 |-------16--15--|-------12--11--|--------|-------------|-------------------||
 |---------------|---------------|-8------|-------------|-------------------||
 |-------14--13--|-------10---9--|-6------|---------9-9-|-6-6--------------o||
 |-0-0-0---------|-0-0-0---------|-6--0-0-|-5-5-8-8-----|-----5-5-8-8-5-5---||

 


 |


 

 
 | PM--| PM--| PM--------------------------------|
 |---------------|---------------|--------|-------------|-------------------||
 |---------------|---------------|--------|-------------|------------------o||
 |-------12--11--|--------9---8--|--------|-------------|-------------------||
 |---------------|---------------|-8------|---------7-7-|-4-4---------------||
 |-------10---9--|--------7---6--|-6------|-3-3-6-6-----|-----3-3-6-6------o||
 |-0-0-0---------|-0-0-0---------|-6--0-0-|-------------|-------------5-5---||

 


 


 2. Q


 [3/4] [4/4]  

 
 PM----------------------------|
 |---------------|-----------------|
 |---------------|-----------------|
 |---------------|-----------------|
 |----------7--7-|-4-4-------------|
 |-3-3-6-6-------|-----3-3-6-6-----|
 |---------------|-------------5-5-|

 


 |


 

 
 | PM----------------------------|
 |---------------|-----------------|
 |---------------|-----------------|
 |---------------|-----------------|
 |---------10-10-|-7-7-------------|
 |-6-6-9-9-------|-----6-6-9-9-----|
 |---------------|-------------8-8-|

 


 


 Riff A1 [0:17]


 There are a few variations on this riff. They are not hard to figure out.


 =207


 [3/4]  

 
 ||--------------------------|---------------------------|
 ||o-------------------------|---------------------------|
 ||--------------------------|---------------------------|
 ||--------------------------|---------------------------|
 ||o-------------------------|---------------------------|
 ||--6-6-6-6-3-3-3-3-7-7-7-7-|-0-0-0-0-0-0-0-0-0-0-0-0---|

 


 |


 

 
 ||--------------------------|---------------------------|
 ||o-------------------------|---------------------------|
 ||--------------------------|---------------------------|
 ||--------------------------|---------------------------|
 ||o-------------------------|---------------------------|
 ||--6-6-6-6-3-3-3-3-7-7-7-7-|-0-0-0-0-0-0-0-0-0-0-0-0---|

 


 


 Gtrs I, II


 

 
 |--------------------------|-------------------------|
 |--------------------------|-------------------------|
 |--------------------------|-------------------------|
 |--------------------------|-------------------------|
 |--------------------------|-------------------------|
 |-6-6-6-6-3-3-3-3-7-7-7-7--|-0-0-0-0-0-0-0-0-0-0-0-0-|

 


 


 [4/4] 3x


 

 
 |-------------------------------------||
 |------------------------------------o||
 |-------------------------------------||
 |-------------------------------------||
 |------------------------------------o||
 |-3-3-3-3-3-3-3-3-6-6-6-6-6-6-6-6-----||

 


 


 [3/4] Gtr I


 

 
 |-----------------------------|-------------------|
 |-----------------------------|-------------------|
 |-----------------------------|-------------------|
 |-----------------------------|-------------------|
 |-----------------------------|-------------------|
 |-6-6-6-6-3-3-3-3--7--7--7--7-|-0-0-0-0-0-0-0-0-0-|

 


 |


 | Gtr II


 

 
 |-----------------------------|-------------------|
 |-----------------------------|-------------------|
 |-----------------------------|-------------------|
 |-----------------------------|-------------------|
 |-----------------------------|-------------------|
 |-9-9-9-9-6-6-6-6-10-10-10-10-|-0-0-0-0-0-0-0-0-0-|
 |---------------------------------|
 |---------------------------------|
 |---------------------------------|
 |---------------------------------|
 |---------------------------------|
 |-10-10-10-10--9--9--9--9-6-6-6-6-|

 


 |


 

 
 |---------------------------------|
 |---------------------------------|
 |---------------------------------|
 |---------------------------------|
 |---------------------------------|
 |-13-13-13-13-12-12-12-12-9-9-9-9-|

 


 


 [4/4]  

 
 |-------------------------|------------------------------------|
 |-------------------------|------------------------------------|
 |-------------------------|------------------------------------|
 |-------------------------|------------------------------------|
 |-------------------------|------------------------------------|
 |-0-0-0-0-0-0-0-0-0-0-0-0-|-3-3-3-3-3-3-3-3-6-6-6-6-6-6-6-6----|

 


 |


 

 
 |-------------------------|------------------------------------|
 |-------------------------|------------------------------------|
 |-------------------------|------------------------------------|
 |-------------------------|------------------------------------|
 |-------------------------|------------------------------------|
 |-0-0-0-0-0-0-0-0-0-0-0-0-|-6-6-6-6-6-6-6-6-9-9-9-9-9-9-9-9----|

 


 


 Riff B [0:35]


 8/4


 Gtrs I, II


 

 
 PM| PM PM PM------------------| PM PM PM PM PM----|
 ||-------------------------------------|-----------------------------------||
 ||o------------------------------------|----------------------------------o||
 ||-------------------------------------|-----------------------------------||
 ||-------------------------------------|-----------------------------------||
 ||o------------------------------------|---5---4---1---5--5---2-----------o||
 ||--7-0-0-6-0-3-0-0--0-0-0-0-0-0-0-0-0-|-0---0---0---0-7--7-0-3--3-6-6-6---||

 


 


 Gtr I


 

 
 PM| PM PM PM------------------| PM PM PM PM PM----|
 |------------------------------------|----------------------------------|
 |------------------------------------|----------------------------------|
 |------------------------------------|----------------------------------|
 |------------------------------------|----------------------------------|
 |------------------------------------|---5---4---1---5--5---2-----------|
 |-7-0-0-6-0-3-0-0--0-0-0-0-0-0-0-0-0-|-0---0---0---0-7--7-0-3--3-6-6-6--|

 


 |


 | Gtr II


 

 
 | PM| PM PM PM------------------| PM PM PM PM PM----|
 |------------------------------------|----------------------------------|
 |------------------------------------|----------------------------------|
 |------------------------------------|----------------------------------|
 |------------------------------------|----------------------------------|
 |-5-----4---1------------------------|-----------5---5--5---2--1-4-4-4--|
 |---0-0---0---0-0--0-0-0-0-0-0-0-0-0-|-0-3-0-2-0---0-7--7-0-3-----------|
 PM| PM PM PM------------------| PM PM PM PM PM----|
 |------------------------------------|----------------------------------|
 |------------------------------------|----------------------------------|
 |------------------------------------|----------------------------------|
 |------------------------------------|----------------------------------|
 |------------------------------------|---5---4---1---5--5---2-----------|
 |-7-0-0-6-0-3-0-0--0-0-0-0-0-0-0-0-0-|-0---0---0---0-7--7-0-3--3-6-6-6--|

 


 |


 

 
 | PM| PM PM PM------------------| PM PM PM PM PM----|
 |------------------------------------|----------------------------------|
 |------------------------------------|----------------------------------|
 |------------------------------------|----------------------------------|
 |------------------------------------|----------------------------------|
 |-5-----4---1------------------------|---8---7---4---5--5---2--1-4-4-4--|
 |---0-0---0---0-0--0-0-0-0-0-0-0-0-0-|-0---0---0---0-7--7-0-3-----------|

 


 


 Riff A2 [0:53]


 


 Gallop and palm muted version of A1


 


 [3/4] Gtrs I, II


 

 
 PM---------------------------------------------------------
 |-------------------|-------------------|-------------------|
 |-------------------|-------------------|-------------------|
 |-------------------|-------------------|-------------------|
 |-------------------|-------------------|-------------------|
 |-------------------|-------------------|-------------------|
 |-6-6-6-3-3-3-7-7-7-|-0-0-0-0-0-0-0-0-0-|-6-6-6-3-3-3-7-7-7-|

 


 


 [4/4]  

 
 -------------------------------------------|
 |-------------------|----------------------------|
 |-------------------|----------------------------|
 |-------------------|----------------------------|
 |-------------------|----------------------------|
 |-------------------|----------------------------|
 |-0-0-0-0-0-0-0-0-0-|-3-3-3-3-3-3-6-6-6-6-6-6----|

 


 


 [3/4] Gtr I


 

 
 PM------------------------------------------------------------------
 |----------------------|-------------------|-------------------------|
 |----------------------|-------------------|-------------------------|
 |----------------------|-------------------|-------------------------|
 |----------------------|-------------------|-------------------------|
 |----------------------|-------------------|-------------------------|
 |-6-6-6-3-3-3--7--7--7-|-0-0-0-0-0-0-0-0-0-|-10-10-10--9--9--9-6-6-6-|

 


 |


 | Gtr II


 

 
 | PM------------------------------------------------------------------
 |----------------------|-------------------|-------------------------|
 |----------------------|-------------------|-------------------------|
 |----------------------|-------------------|-------------------------|
 |----------------------|-------------------|-------------------------|
 |----------------------|-------------------|-------------------------|
 |-9-9-9-6-6-6-10-10-10-|-0-0-0-0-0-0-0-0-0-|-13-13-13-12-12-12-9-9-9-|

 


 


 [4/4]  

 
 -------------------------------------------|
 |-------------------|----------------------------|
 |-------------------|----------------------------|
 |-------------------|----------------------------|
 |-------------------|----------------------------|
 |-------------------|----------------------------|
 |-0-0-0-0-0-0-0-0-0-|-3-3-3-3-3-3-6-6-6-6-6-6----|

 


 |


 

 
 |-------------------------------------------|
 |-------------------|----------------------------|
 |-------------------|----------------------------|
 |-------------------|----------------------------|
 |-------------------|----------------------------|
 |-------------------|----------------------------|
 |-0-0-0-0-0-0-0-0-0-|-6-6-6-6-6-6-9-9-9-9-9-9----|

 


 


 Riff B [1:03]


 


 Riff C [1:12]


 Q=216


 [2/4] Gtrs I,[4/4] II


 

 
 PM-----------------------
 |-------|-------------------------|
 |-------|-------------------------|
 |-------|-------------------------|
 |-------|-------------------------|
 |-9--8--|-------------------------|
 |-7--6--|-6-6-6-6-6-6-6-6-6-6-6-6-|

 


 


 [3/4]  

 
 -----------------------| PM--------------|
 |-------------------------|----------|----------------------|
 |-------------------------|----------|----------------------|
 |-------------------------|----------|----------------------|
 |-------------------------|----------|----------------------|
 |-------------------------|-9--8--5--|----------------------|
 |-6-6-6-6-6-6-6-6-6-6-6-6-|-7--6--3--|-3-3-3-3-3-3-3-3-3----|

 


 


 [2/4] Gtr I[4/4]


 

 
 PM-----------------------
 |-------|-------------------------|
 |-------|-------------------------|
 |-------|-------------------------|
 |-------|-------------------------|
 |-9--8--|-------------------------|
 |-7--6--|-6-6-6-6-6-6-6-6-6-6-6-6-|

 


 |


 | Gtr II


 

 
 | PM-----------------------
 |-------|-------------------------|
 |-------|-------------------------|
 |-------|-------------------------|
 |-------|-------------------------|
 |-9--8--|-------------------------|
 |-7--6--|-6-6-6-6-6-6-6-6-6-6-6-6-|

 


 


 [3/4]  

 
 -----------------------|
 |-------------------------|----------|------------|
 |-------------------------|----------|------------|
 |-------------------------|----------|------------|
 |-------------------------|----------|------------|
 |-------------------------|-9--8--5--|-(5)b5.5----|
 |-6-6-6-6-6-6-6-6-6-6-6-6-|-7--6-----|------------|

 


 |


 

 
 |-----------------------|
 |-------------------------|----------|------------|
 |-------------------------|----------|------------|
 |-------------------------|----------|------------|
 |-------------------------|----------|------------|
 |-------------------------|-9--8--9--|-(9)b9.5----|
 |-6-6-6-6-6-6-6-6-6-6-6-6-|-7--6-----|------------|

 


 


 Riff D [1:21]


 Guitar I on top and II on bottom...I just got lazy.


 


 [4/4]  

 
 |---------------------------------|----------------------------------|
 |---------------------------------|----------------------------------|
 |---------------------------------|----------------------------------|
 |---------------------------------|----------------------------------|
 |-5-5-5-5-5-5-5-5-8-5-5-5-5-5-5-5-|--9-5-5-5-5-5-5-5-8-5-5-5-5-5-5-5-|
 |---------------------------------|----------------------------------|

 


 |


 

 
 |---------------------------------|----------------------------------|
 |---------------------------------|----------------------------------|
 |---------------------------------|----------------------------------|
 |---------------------------------|----------------------------------|
 |---------------------------------|----------------------------------|
 |-7-7-7-7-7-7-7-7-9-7-7-7-7-7-7-7-|-10-7-7-7-7-7-7-7-9-7-7-7-7-7-7-7-|
 |---------------------------------|--------------------------------------------|
 |---------------------------------|--------------------------------------------|
 |---------------------------------|--------------------------------------------|
 |-8-8-8-8-9-9-9-9-8-8-8-8-9-9-9-9-|-11-11-11-11-12-12-12-12-11-11-11-11-9-9-9-9|
 |---------------------------------|--------------------------------------------|
 |---------------------------------|--------------------------------------------|

 


 |


 

 
 |---------------------------------|--------------------------------------------|
 |---------------------------------|--------------------------------------------|
 |---------------------------------|--------------------------------------------|
 |---------------------------------|--------------------------------------------|
 |---------------------------------|--------------------------------------------|
 |-6-6-6-6-6-6-6-6-6-6-6-6-7-7-7-7-|--9--9--9--9-10-10-10-10--9--9--9--9-7-7-7-7|
 |---------------------------------|----------------------------------|
 |---------------------------------|----------------------------------|
 |---------------------------------|----------------------------------|
 |---------------------------------|----------------------------------|
 |-5-5-5-5-5-5-5-5-8-5-5-5-5-5-5-5-|--9-5-5-5-5-5-5-5-8-5-5-5-5-5-5-5-|
 |---------------------------------|----------------------------------|

 


 |


 

 
 |---------------------------------|----------------------------------|
 |---------------------------------|----------------------------------|
 |---------------------------------|----------------------------------|
 |---------------------------------|----------------------------------|
 |---------------------------------|----------------------------------|
 |-7-7-7-7-7-7-7-7-9-7-7-7-7-7-7-7-|-10-7-7-7-7-7-7-7-9-7-7-7-7-7-7-7-|
 |---------------------------------|------------------------------------|
 |---------------------------------|------------------------------------|
 |---------------------------------|------------------------------------|
 |-9-9-9-9-8-8-8-8-5-5-5-5-8-8-8-8-|-5-5-5-5-4-4-4-4-5-5-5-5-4-4-4-4----|
 |---------------------------------|------------------------------------|
 |---------------------------------|------------------------------------|

 


 |


 

 
 |---------------------------------|------------------------------------|
 |---------------------------------|------------------------------------|
 |---------------------------------|------------------------------------|
 |---------------------------------|------------------------------------|
 |---------------------------------|-----------------4-4-4-4-4-4-4-4----|
 |-3-3-3-3-3-3-3-3-3-3-3-3-7-7-7-7-|-2-2-2-2-2-2-2-2--------------------|
 |---------------------------------|----------------------------------|
 |---------------------------------|----------------------------------|
 |---------------------------------|----------------------------------|
 |---------------------------------|----------------------------------|
 |-5-5-5-5-5-5-5-5-8-5-5-5-5-5-5-5-|--9-5-5-5-5-5-5-5-8-5-5-5-5-5-5-5-|
 |---------------------------------|----------------------------------|

 


 |


 

 
 |---------------------------------|----------------------------------|
 |---------------------------------|----------------------------------|
 |---------------------------------|----------------------------------|
 |---------------------------------|----------------------------------|
 |---------------------------------|----------------------------------|
 |-7-7-7-7-7-7-7-7-9-7-7-7-7-7-7-7-|-10-7-7-7-7-7-7-7-9-7-7-7-7-7-7-7-|

 


 


 Guitar I changes the lead rhythm wise...listen close


 


 

 
 |-------------------------------------|-----------------------------------------
 |-------------------------------------|-----------------------------------------
 |-------------------------------------|-----------------------------------------
 |-8-8-8-8-9-9-9-9-8-8-9-9-11-11-11-11-|-12-12-12-12-11-11-11-11-9-9-11-9-8-8-8-8
 |-------------------------------------|-----------------------------------------
 |-------------------------------------|-----------------------------------------

 


 |


 

 
 |-------------------------------------|-----------------------------------------
 |-------------------------------------|-----------------------------------------
 |-------------------------------------|-----------------------------------------
 |-------------------------------------|-----------------------------------------
 |-------------------------------------|-----------------------------------------
 |-6-6-6-6-6-6-6-6-6-6-6-6--7--7--7--7-|--9--9--9--9-10-10-10-10-9-9--9-9-7-7-7-7
 |---------------------------------|----------------------------------|
 |---------------------------------|----------------------------------|
 |---------------------------------|----------------------------------|
 |---------------------------------|----------------------------------|
 |-5-5-5-5-5-5-5-5-8-5-5-5-5-5-5-5-|--9-5-5-5-5-5-5-5-8-5-5-5-5-5-5-5-|
 |---------------------------------|----------------------------------|

 


 |


 

 
 |---------------------------------|----------------------------------|
 |---------------------------------|----------------------------------|
 |---------------------------------|----------------------------------|
 |---------------------------------|----------------------------------|
 |---------------------------------|----------------------------------|
 |-7-7-7-7-7-7-7-7-9-7-7-7-7-7-7-7-|-10-7-7-7-7-7-7-7-9-7-7-7-7-7-7-7-|
 |---------------------------------|------------------|
 |---------------------------------|------------------|
 |---------------------------------|------------------|
 |-9-9-9-9-8-8-8-8-5-5-5-5-8-8-8-8-|-5-5-5-5-4--------|
 |---------------------------------|------------------|
 |---------------------------------|------------------|

 


 |


 | PM


 

 
 |---------------------------------|------------------|
 |---------------------------------|------------------|
 |---------------------------------|------------------|
 |---------------------------------|------------------|
 |-5-----------------------9-------|-4----------------|
 |-3-----------------------7-------|-2----------/9----|

 


 


 Riff A3 [1:40]


 


 Mixture of A1 and A2


 


 Q=207


 [3/4] Gtrs I, II


 

 
 PM--------------|
 |-------------------------|-------------------|-------------------------|
 |-------------------------|-------------------|-------------------------|
 |-------------------------|-------------------|-------------------------|
 |-------------------------|-------------------|-------------------------|
 |-------------------------|-------------------|-------------------------|
 |-6-6-6-6-3-3-3-3-7-7-7-7-|-0-0-0-0-0-0-0-0-0-|-6-6-6-6-3-3-3-3-7-7-7-7-|

 


 


 [4/4]  

 
 PM--------------|
 |-------------------|------------------------------------|
 |-------------------|------------------------------------|
 |-------------------|------------------------------------|
 |-------------------|------------------------------------|
 |-------------------|------------------------------------|
 |-0-0-0-0-0-0-0-0-0-|-3-3-3-3-3-3-3-3-6-6-6-6-6-6-6-6----|

 


 


 [3/4] Gtr I


 

 
 PM--------------|
 |-----------------------------|-------------------|
 |-----------------------------|-------------------|
 |-----------------------------|-------------------|
 |-----------------------------|-------------------|
 |-----------------------------|-------------------|
 |-6-6-6-6-3-3-3-3--7--7--7--7-|-0-0-0-0-0-0-0-0-0-|

 


 |


 | Gtr II


 

 
 | PM--------------|
 |-----------------------------|-------------------|
 |-----------------------------|-------------------|
 |-----------------------------|-------------------|
 |-----------------------------|-------------------|
 |-----------------------------|-------------------|
 |-9-9-9-9-6-6-6-6-10-10-10-10-|-0-0-0-0-0-0-0-0-0-|
 |---------------------------------|
 |---------------------------------|
 |---------------------------------|
 |---------------------------------|
 |---------------------------------|
 |-10-10-10-10--9--9--9--9-6-6-6-6-|

 


 |


 

 
 |---------------------------------|
 |---------------------------------|
 |---------------------------------|
 |---------------------------------|
 |---------------------------------|
 |-13-13-13-13-12-12-12-12-9-9-9-9-|

 


 


 [4/4]  

 
 PM--------------|
 |-------------------|------------------------------------|
 |-------------------|------------------------------------|
 |-------------------|------------------------------------|
 |-------------------|------------------------------------|
 |-------------------|------------------------------------|
 |-0-0-0-0-0-0-0-0-0-|-3-3-3-3-3-3-3-3-6-6-6-6-6-6-6-6----|

 


 |


 

 
 | PM--------------|
 |-------------------|------------------------------------|
 |-------------------|------------------------------------|
 |-------------------|------------------------------------|
 |-------------------|------------------------------------|
 |-------------------|------------------------------------|
 |-0-0-0-0-0-0-0-0-0-|-6-6-6-6-6-6-6-6-9-9-9-9-9-9-9-9----|

 


 


 Riff E [1:49]


 

 
 ||----------------|------------|-------------|----------|
 ||o---------------|------------|-------------|----------|
 ||----------------|------------|-------------|----------|
 ||---9------9-----|------------|-8-----8-----|----------|
 ||o---------------|--9--5------|-------------|--7--4----|
 ||------7------7--|------------|----6-----6--|----------|

 


 |


 

 
 ||----------------|------------|-------------|----------|
 ||o---------------|------------|-------------|----------|
 ||----------------|------------|-------------|----------|
 ||----------------|------------|-------------|----------|
 ||o-10-----10-----|-13--9------|-9-----9-----|-10--7----|
 ||------7------7--|------------|----6-----6--|----------|
 |-------------|--------------|-------------|----------||
 |-------------|--------------|-------------|---------o||
 |-------------|--------------|-------------|----------||
 |-5-----5-----|-5------9-----|-4-----4-----|----------||
 |-------------|----7------5--|-------------|-7--4----o||
 |----3-----3--|--------------|----2-----2--|----------||

 


 |


 

 
 |-------------|--------------|-------------|----------||
 |-------------|--------------|-------------|---------o||
 |-------------|--------------|-------------|----------||
 |-------------|--------------|-------------|----------||
 |-7-----7-----|-7--4--10-----|-5-----5-----|-4-------o||
 |----3-----3--|-----------7--|----2-----2--|----6-----||

 


 


 Guitar Solo [2:07]


 Gtrs I, II


 

 
 PM----------------------
 |------------------|-------------|-------------------------------|
 |------------------|-------------|-------------------------------|
 |------------------|-------------|-------------------------------|
 |------------------|-------------|-------------------------------|
 |--9---------------|--8-----5----|--9----------------------------|
 |--7---------------|--6-----3----|--7-----7-7--7--7-7--7--7-7--7-|

 


 |


 | Gtr III


 

 
 |-19------19p18p15-|-18----19----|-15-18------15-----------------|
 |------------------|-------------|-------19------17---19-15---17-|
 |------------------|-------------|-------------------------------|
 |------------------|-------------|-------------------------------|
 |------------------|-------------|-------------------------------|
 |------------------|-------------|-------------------------------|
 ------------------------------|
 |----------------------------------|
 |----------------------------------|
 |----------------------------------|
 |----------------------------------|
 |----------------------------------|
 |--7-7--7--7-7--7--7-7--7--7-7--7--|

 


 |


 

 
 |----------------------------------|
 |------15--------------------------|
 |-18------16---18-15---16------15--|
 |-------------------------17-------|
 |----------------------------------|
 |----------------------------------|
 |------------------|-------------------------|
 |------------------|-------------------------|
 |------------------|-------------------------|
 |------------------|--------------4----------|
 |--4---------------|--5-----------2----------|
 |--2---------------|--3----------------------|

 


 |


 

 
 |------------------|-------------------15-18-|
 |------------------|----------15-17-19-------|
 |------------------|-15-16-18----------------|
 |-16---------16h17-|-------------------------|
 |---------19-------|-------------------------|
 |------------------|-------------------------|
 PM------------------| PM------------------|
 |-------------------------------|---------------------------------|
 |-------------------------------|---------------------------------|
 |-------------------------------|---------------------------------|
 |-------------------------------|---------------------------------|
 |--4----------------------------|---------------------------------|
 |--2-----2-2--2--2-2--2--2-2--2-|--0h=2--2-2--2--2-2--2--2-2--2---|

 


 |


 

 
 |-19-15-18------15--------------|---------------------------------|
 |------------19------17-19---15-|-17----15------------------------|
 |-------------------------------|----18------16-18---16-15---16---|
 |-------------------------------|---------------------------------|
 |-------------------------------|---------------------------------|
 |-------------------------------|---------------------------------|
 |-----------------|-----------------|
 |-----------------|-----------------|
 |-----------------|-----------------|
 |-----------------|-----------------|
 |--9--------------|--8-------5------|
 |--7--------------|--6-------3------|

 


 |


 | ~~ ~~


 

 
 |-----------------|-----------------|
 |-----------------|-----------------|
 |-15-----15-15-15-|-16---16-15------|
 |-----------------|-------------17--|
 |-----------------|-----------------|
 |-----------------|-----------------|
 PM---------------------------------------------|
 |-------------------------|------------------------------|
 |-------------------------|------------------------------|
 |-------------------------|------------------------------|
 |-------------------------|------------------------------|
 |--9----------------------|------------------------------|
 |--7--7--7-7-7--7-7-7-7-7-|--7-7-7--7-7-7--7-7-7-7-7-7---|

 


 |


 

 
 |-------------------------|------------------------------|
 |-------------------------|------------------------------|
 |-------------------------|------------------------------|
 |-16----17-----16---------|------------------------------|
 |-------------------------|-19-----17-----16-------------|
 |-------------------------|------------------------------|
 PM----------------------------
 |---------------|------------|-------------------------------------|
 |---------------|------------|-------------------------------------|
 |---------------|------------|-------------------------------------|
 |---------------|-------4----|-------------------------------------|
 |--4------------|--5----2----|-------------------------------------|
 |--2------------|--3---------|--0-----0--0--0--0--0--0--0--0--0----|

 


 |


 

 
 | PM| ~~ PM------------------| PM-
 |---------------|------------|-------------------------------------|
 |---------------|------------|-------------------------------------|
 |---------------|------------|-------------------------------------|
 |---------------|------------|-------------------14-17-17-16-14----|
 |-14------13----|------------|----------14-16-17----------------17-|
 |------------15-|-14---------|-14-15-17----------------------------|
 ----------------------------------|
 |--------------------------------------|
 |--------------------------------------|
 |--------------------------------------|
 |--------------------------------------|
 |--------------------------------------|
 |--0--0--0--0--0--0--0--0--0--0--0--0--|

 


 |


 

 
 |----------------------------------|
 |--------------------------------------|
 |--------------------------------------|
 |--------------------------------------|
 |-14-----------------------------------|
 |----17-16-17-16-14-16-14-13-14-13-----|
 |----------------------------------15--|

 


 


 [3/4] [5/4]  

 
 |---------------------------|---------------------------------------------|
 |---------------------------|---------------------------------------------|
 |---------------------------|---------------------------------------------|
 |---------------------------|---------------------------------------------|
 |---------------------------|---------------------------------------------|
 |--3-3-3-3--2-2-2-2-2-2-2-2-|--6-6-6-6-2-2-2-2--2-2-2-2--3-3-3-3--2-2-2-2-|

 


 |


 

 
 |---------------------------|---------------------------------------------|
 |---------------------------|---------------------------------------------|
 |---------------------------|---------------------------------------------|
 |---------------------------|---------------------------------------------|
 |-13------------------------|------------------------------------13-------|
 |----------15---------------|-14---------------15-------14----------------|

 


 


 [4/4]  

 
 PM------------------------------------
 |-------------------------------------------------|
 |-------------------------------------------------|
 |-------------------------------------------------|
 |-------------------------------------------------|
 |--2----------------------------------------------|
 |--0--------0-0----0-----0-0----0-----0-0----0----|

 


 |


 

 
 | PM----------------|
 |-------------------------------------------------|
 |-------------------------------------------------|
 |-----------------------15---16---18-16---15------|
 |----------14---16---17------------------------17-|
 |-14-16-17----------------------------------------|
 |-------------------------------------------------|
 --------------------------------------------------|
 |-----------------------------------------------------|
 |-----------------------------------------------------|
 |-----------------------------------------------------|
 |-----------------------------------------------------|
 |-----------------------------------------------------|
 |--0-0----0-----0-0----0-----0-0----0-----0-0----0----|

 


 |


 

 
 |-----------------------------------------------------|
 |-----------------------------------------------------|
 |-15--------------------------------------------------|
 |------17---16-17---16---14-16---14------14-----------|
 |-------------------------------------17------17---16-|
 |-----------------------------------------------------|

 


 


 [3/4] Gtr I[5/4]


 

 
 |---------------------------|------------------------------------------------|
 |---------------------------|------------------------------------------------|
 |---------------------------|------------------------------------------------|
 |---------------------------|------------------------------------------------|
 |---------------------------|------------------------------------------------|
 |--3-3-3-3--2-2-2-2-2-2-2-2-|--6--6--6--6-2-2-2-2--2-2-2-2--3-3-3-3--2-2-2-2-|

 


 |


 | Gtr II


 

 
 |---------------------------|------------------------------------------------|
 |---------------------------|------------------------------------------------|
 |---------------------------|------------------------------------------------|
 |---------------------------|------------------------------------------------|
 |---------------------------|------------------------------------------------|
 |--7-7-7-7--6-6-6-6-6-6-6-6-|-10-10-10-10-6-6-6-6--6-6-6-6--7-7-7-7--6-6-6-6-|

 


 |


 | Gtr III


 

 
 |---------------------------|------------------------------------------------|
 |---------------------------|------------------------------------------------|
 |---------------------------|---------------------15-------15S======16-------|
 |-17-------16---------------|------------------------------------------------|
 |---------------------------|-19---------------------------------------------|
 |---------------------------|------------------------------------------------|

 


 


 [4/4]  

 
 PM------------------------------------
 |-------------------------------------------------|
 |-------------------------------------------------|
 |-------------------------------------------------|
 |-------------------------------------------------|
 |--2----------------------------------------------|
 |--0--------0-0----0-----0-0----0-----0-0----0----|

 


 |


 |


 

 
 |-----------------------15---18---19-18---15------|
 |----------15---17---18------------------------19-|
 |-15-16-18----------------------------------------|
 |-------------------------------------------------|
 |-------------------------------------------------|
 |-------------------------------------------------|
 ----------------------------------------------|
 |-------------------------------------------------|
 |-------------------------------------------------|
 |-------------------------------------------------|
 |-------------------------------------------------|
 |-------------------------------------------------|
 |--0-0----0-----0-0----0-----0-0----0-----0-0-0---|

 


 |


 |


 

 
 |-15----------------------------------------------|
 |------19---17-19---17---15-17---15---------------|
 |-------------------------------------18-16-------|
 |-------------------------------------------------|
 |-------------------------------------------------|
 |-------------------------------------------------|

 


 


 [3/4]  

 
 |-------------------------------------|
 |-------------------------------------|
 |-------------------------------------|
 |-------------------------------------|
 |-------------------------------------|
 |--3--3--3--3--2--2--2--2--2--2--2--2-|

 


 |


 

 
 |-------------------------------------|
 |-------------------------------------|
 |-------------------------------------|
 |-------------------------------------|
 |-------------------------------------|
 |--3--3--3--3--2--2--2--2--2--2--2--2-|

 


 |


 | Gtr III


 

 
 |-22-22-22-22-22-22-22-22-22-22-22-22-|
 |-------------------------------------|
 |-------------------------------------|
 |-------------------------------------|
 |-------------------------------------|
 |-------------------------------------|

 


 


 [5/4]  

 
 |----------------------------------------------------------|
 |----------------------------------------------------------|
 |----------------------------------------------------------|
 |----------------------------------------------------------|
 |----------------------------------------------------------|
 |--6--6--6--6--2--2--2--2--2--2--2--2--3----3-3-3--2-2-2-2-|

 


 |


 

 
 |----------------------------------------------------------|
 |----------------------------------------------------------|
 |----------------------------------------------------------|
 |----------------------------------------------------------|
 |----------------------------------------------------------|
 |--6--6--6--6--2--2--2--2--2--2--2--2--3----3-3-3--2-2-2-2-|

 


 |


 

 
 |-21-21-21-21-21-21-21-21-19-19-19-19-------------19-------|
 |-------------------------------------22b24----------------|
 |----------------------------------------------------------|
 |----------------------------------------------------------|
 |----------------------------------------------------------|
 |----------------------------------------------------------|

 


 


 Riff F [2:37]


 [4/4]  

 
 PM--------------| PM------|
 |----------------------|-------------------|
 |----------------------|-------------------|
 |----------------------|-------------------|
 |----------------------|--------------5--9-|
 |-2--------------------|-5-----------------|
 |-0--0-0-0-0-0-0-0-0-0-|-3--3-3-3-3-7------|

 


 |


 

 
 | PM--------------| PM--------|
 |----------------------|-------------------|
 |----------------------|-------------------|
 |----------------------|-------------------|
 |----------------------|-------------------|
 |-2--------------------|-5------------6-10-|
 |-0--0-0-0-0-0-0-0-0-0-|-3--3-3-3-3-7------|
 PM----------------------------------------|
 |----------------------|-------------------------|
 |----------------------|-------------------------|
 |----------------------|-------------------------|
 |----------------------|-------------------------|
 |-4--------------------|-------------------------|
 |-2--2-2-2-2-2-2-2-2-2-|-2-2-2-2-2-2-2-2-2-2-2-2-|

 


 |


 

 
 | PM----------------------------------------|
 |----------------------|-------------------------|
 |----------------------|-------------------------|
 |----------------------|-------------------------|
 |----------------------|-------------------------|
 |-4--------------------|-------------------------|
 |-2--2-2-2-2-2-2-2-2-2-|-2-2-2-2-2-2-2-2-2-2-2-2-|
 PM--------------| PM------|
 |----------------------|-------------------|
 |----------------------|-------------------|
 |----------------------|-------------------|
 |----------------------|--------------5--9-|
 |-2--------------------|-5-----------------|
 |-0--0-0-0-0-0-0-0-0-0-|-3--3-3-3-3-7------|

 


 |


 

 
 | PM--------------| PM--------|
 |----------------------|-------------------|
 |----------------------|-------------------|
 |----------------------|-------------------|
 |----------------------|-------------------|
 |-2--------------------|-5------------6-10-|
 |-0--0-0-0-0-0-0-0-0-0-|-3--3-3-3-3-7------|
 PM----------------------------------------|
 |----------------------|--------------------------|
 |----------------------|--------------------------|
 |----------------------|--------------------------|
 |----------------------|--------------------------|
 |-4--------------------|--------------------------|
 |-2--2-2-2-2-2-2-2-2-2-|-2-2-2-2-2-2-2-2-2-2-2-2--|

 


 |


 

 
 | PM----------------------------|
 |----------------------|--------------------------|
 |----------------------|--------------------------|
 |----------------------|--------------------------|
 |----------------------|-------------5---4-5---4--|
 |-4--------------------|--------------------------|
 |-2--2-2-2-2-2-2-2-2-2-|-2-2-2-2-2-2-3---2-3---2--|
 PM--------------| PM------|
 |----------------------|-------------------|
 |----------------------|-------------------|
 |----------------------|-------------------|
 |----------------------|--------------5--9-|
 |-2--------------------|-5-----------------|
 |-0--0-0-0-0-0-0-0-0-0-|-3--3-3-3-3-7------|

 


 |


 

 
 | PM--------------| PM--------|
 |----------------------|-------------------|
 |----------------------|-------------------|
 |----------------------|-------------------|
 |----------------------|-------------------|
 |-2--------------------|-5------------6-10-|
 |-0--0-0-0-0-0-0-0-0-0-|-3--3-3-3-3-7------|
 PM----------------------------------------|
 |----------------------|--------------------------|
 |----------------------|--------------------------|
 |----------------------|--------------------------|
 |----------------------|--------------------------|
 |-4--------------------|--------------------------|
 |-2--2-2-2-2-2-2-2-2-2-|-2-2-2-2-2-2-2-2-2-2-2-2--|

 


 |


 

 
 | PM----------------------------------------|
 |----------------------|--------------------------|
 |----------------------|--------------------------|
 |----------------------|--------------------------|
 |----------------------|--------------------------|
 |-4--------------------|--------------------------|
 |-2--2-2-2-2-2-2-2-2-2-|-2-2-2-2-2-2-2-2-2-2-2-2--|

 


 


 [4/4]  

 
 PM--------------| PM------|
 |----------------------|-------------------|
 |----------------------|-------------------|
 |----------------------|-------------------|
 |----------------------|--------------5--9-|
 |-2--------------------|-5-----------------|
 |-0--0-0-0-0-0-0-0-0-0-|-3--3-3-3-3-7------|

 


 |


 

 
 | PM--------------| PM--------|
 |----------------------|-------------------|
 |----------------------|-------------------|
 |----------------------|-------------------|
 |----------------------|-------------------|
 |-2--------------------|-5------------6-10-|
 |-0--0-0-0-0-0-0-0-0-0-|-3--3-3-3-3-7------|

 


 


 Riff G [2:54]


 This one is quite tricky. Minor thirds all over the place.


 


 [4/4]  

 
 PM----| PM PM PM PM----| PM
 |-----------------|-------------------|-----------------|---------------------|
 |-----------------|-------------------|-----------------|---------------------|
 |-----------------|-------------------|-----------------|---------------------|
 |---------------5-|---8---------------|---------------8-|-5---5p2-------------|
 |-----4---7p4-----|-------4-7-7-4h7p4-|---------7p4-----|---7-----4h7p4-------|
 |-0-3---0-----0---|-0---0-------------|-0-3-6-0-----0---|---------------3h6p3-|

 


 |


 | PM| PM|


 

 
 |-----------------|-------------------|-----------------|---------------------|
 |-----------------|-------------------|-----------------|---------------------|
 |-----------------|-------------------|-----------------|---------------------|
 |-----------------|-------------------|---------------5-|-2-------------------|
 |-2-2-------------|-------------------|-2-2-------------|---4-7p4-1h4p1-------|
 |-0-0-------------|-------------------|-0-0-------------|---------------0h3p0-|
 PM----------| PM PM|
 |-----------------|----------------------|
 |-----------------|----------------------|
 |---------------6-|----9-----------------|
 |-------7-8-5-----|--------5------5h=8p5-|
 |---4-7-------7---|-7----7---------------|
 |-3---------------|----------0--0--------|

 


 |


 | PM--| PM PM PM PM


 

 
 |-----------------|----------------------|
 |-----------------|----------------------|
 |-----------------|----------------------|
 |-------4-5-2---8-|---11-----------------|
 |-----4-----------|--------7---10-7-10p7-|
 |-0-3---------0---|-0----0---0-----------|

 


 


 PM----| PM


 

 
 |-------------------|--------------------------|
 |-------------------|--------------------------|
 |-----------------9p|=6----6p3p===0------------|
 |----------8p5------|----8----------5h=8p5-----|
 |---4-7-------------|----------------------7-4-|
 |-3-----0------0----|--------------------------|

 


 |


 | PM----| PM


 

 
 |-------------------|--------------------------|
 |-------------------|--------------------------|
 |-------------------|------9-------------9-----|
 |----------------11p|=8------------------------|
 |-----4---10p7------|---10-----10---7h10---7-4-|
 |-0-3---0------0----|--------------------------|

 


 


 Riff C [3:02]


 


 Riff D [3:11]


 


 Riff H [3:28]


 [3/4] [4/4] [5/4]  

 
 PM----------------------| PM--------------| PM--| PM
 |-------------|-------------------|---------------------|---------------------|
 |-------------|-------------------|---------------------|---------------------|
 |-------------|-------------------|---------------------|---------------------|
 |-9\----------|-------------------|---------------------|-9--------8S=9-------|
 |-------------|-------------------|---------------------|---------------------|
 |-7\----0-0-0-|-0-0-0-0-0-0-0-0-0-|---0-0-0-0-0-0-0-0-0-|-7--0-0-0-6S=7--0----|

 


 |


 

 
 | PM----------------------| PM--------------| PM--| PM
 |-------------|-------------------|---------------------|---------------------|
 |-------------|-------------------|---------------------|---------------------|
 |-------------|-------------------|---------------------|---------------------|
 |-5\----------|-------------------|---------------------|-5--------4S=5-------|
 |-------------|-------------------|---------------------|---------------------|
 |-3\----0-0-0-|-0-0-0-0-0-0-0-0-0-|---0-0-0-0-0-0-0-0-0-|-3--0-0-0-2S=3--0----|

 


 


 [3/4] [4/4] [5/4]  

 
 PM--------------------| PM--------------| PM--| PM
 |--------|-------------------------|---------------------|---------------------|
 |--------|-------------------------|---------------------|---------------------|
 |--------|-------------------------|---------------------|---------------------|
 |-12\----|-------------------------|---------------------|-9--------8S=9-------|
 |--------|-------------------------|---------------------|---------------------|
 |-10\----|-0-0-0-0-0-0-0-0-0-0-0-0-|---0-0-0-0-0-0-0-0-0-|-7--0-0-0-6S=7--0----|


Important: The song above is NOT stored on the Chordie server. The original song is hosted at www.guitaretab.com. Chordie works as a search engine and provides on-the-fly formatting. Chordie does not index songs against artists'/composers' will. To remove this song please click here.

This song is displayed as text-only. Transposing and tuning is only available for chordpro-songs.
Rate #1 of 2 versions

Login - add to songbook

SHARE PAGE  




You need to log in to post comments