Guitar Tabs, Chords and Lyrics
Major upgrade!! After one year development the new version of Chordie is now online! Please give feedback.


Statutory Ape  The Black Dahlia Murder

Band- Black Dahlia Murder
Song- Statutory Ape
Gtr I (C F Bb Eb G C) - 'Untitled'
Gtr II (C F Bb Eb G C) - 'Untitled'
Gtr III (C F Bb Eb G C) - 'Untitled'
Gtr IV (C F Bb Eb G C) - 'Untitled'
Q=230
[4/4] Gtr I
[E] [E] [E] [E] [E] [E] [E] [E]  
 
 |---------------------|
 |---------------------|
 |---------------------|
 |-----2---4---7-------|
 |-3-----3---6----9----|
 |---5-----------------|

|
| Gtr II
| E E E E E E E E
 
 |---------------------|
 |---------------------|
 |---------------------|
 |---------------------|
 |-0---3---6---9-------|
 |---1---5---7---11----|

[4/4] Gtr I
[E] [E] [E] [E] [E] [E] [E] [E] [E] [E] [E] [E] [E] [E] [E] [E] [E] [E] [E] [E] [E] [E] [E] [E]  
 
 ||--------------------|------------------|-------------------|
 ||o-------------------|------------------|---------------8---|
 ||--------------------|-9---9------------|-----------9-----9-|
 ||-------9----9-------|-------9-10-7-----|------9------------|
 ||o--------7----7-----|---7----------9-7-|--------7----7-----|
 ||--0-0-----------0-0-|------------------|-0-0---------------|

|
| Gtr II
| E E E E E E E E E E E E E E E E E E E E E E E E
 
 ||--------------------|------------------|-------------------|
 ||o-------------------|------------------|-------------------|
 ||--------------------|------------------|---------------9---|
 ||--------------------|-9---9----7-------|----------10-------|
 ||o-----10-7-10-7-----|---7---7----9-7---|-----10-7----7---7-|
 ||--0-0-----------0-0-|----------------7-|-0-0---------------|

E E E E E E E E 4x E E E E E E E E
 
 |--------------------||---------------------|
 |-------------------o||---------------------|
 |----------7---------||----------7----7-----|
 |-10-7--------9-7----||-10-7--------9----9--|
 |------9-7--------9-o||------9-7------------|
 |--------------------||---------------------|

|
| E E E E E E E E 4x E E E E E E E E
 
 |--------------------||---------------------|
 |-------------------o||---------------------|
 |--------------------||---------------------|
 |--7-------9---------||--7-------9----9-----|
 |----9-7-----10-9-7-o||----9-7-----10---10--|
 |--------7-----------||--------7------------|

E E E E E E E E E E E E E E E E E E E E E E E E E E E E E E Q
 
 ||-------------------|-----------------|------------------|-------------------||
 ||o------------------|-----------------|------------------|------------------o||
 ||-------------------|-----------------|------------------|-------------------||
 ||-------------------|-------7---5-----|-10-----9-----7-5-|-9-----7-----------||
 ||o-7-----10---9---7-|-6---------------|----0-0---0-0-----|-------------10---o||
 ||----0-0----0---0---|---0-0---0---0-0-|------------------|---7-7---7-7-------||

|
| E E E E E E E E E E E E E E E E E E E E E E E E E E E E E E Q
 
 ||-------------------|-----------------|------------------|-------------------||
 ||o------------------|-----------------|------------------|------------------o||
 ||-------------------|-----------------|------------------|-------------------||
 ||-------------------|-------7---5-----|--7-----5-----4-2-|-5-----4------2----||
 ||o-7-----10---9---7-|-6---------------|----0-0---0-0-----|---2-2---2-2------o||
 ||----0-0----0---0---|---0-0---0---0-0-|------------------|-------------------||

|-3-|
[E] [E] [E] [E] [E] [E] [E] [E] [E] [E] [E] [E] [E] [E] [E] [E] [E]  
 
 ||-------------------|-------------------|
 ||o------------------|-------------------|
 ||-------------------|-------------------|
 ||-------------------|-------------------|
 ||o-7-----10---9---7-|-6-------------7-9-|
 ||----0-0----0---0---|---0-0-0-0-7-8-----|

|
| |-3-|
| E E E E E E E E E E E E E E E E E
 
 ||-------------------|-------------------|
 ||o------------------|-------------------|
 ||-------------------|-------------------|
 ||-------------------|-------------------|
 ||o-7-----10---9---7-|-6-------------6-7-|
 ||----0-0----0---0---|---0-0-0-0-3-5-----|

E E E E E Q E E E E E E E E E
 
 |-------------------|------------------||
 |-------------------|-----------------o||
 |-------------------|------------------||
 |-10------9---7---9-|------------------||
 |-------------------|-7-------7-------o||
 |----8-8----8-------|---0-0-0---0-0-0--||

|
| E E E E E Q E E E E E E E E E
 
 |-------------------|------------------||
 |-------------------|-----------------o||
 |-------------------|------------------||
 |-------------------|------------------||
 |-12-----10---9--10-|-7-------7-------o||
 |----8-8----8-------|---0-0-0---0-0-0--||

|-3-| |-3-|
[E] [E] [E] [E] [E] [E] [E] [E] [E] [E] [E] [E] [E] [E] [E] [E] [E] [E]  
 
 ||-------------------|---------------------|
 ||o------------------|---------------------|
 ||-------------------|---------------------|
 ||---7-----4---5-----|---------------------|
 ||o----0-0---0---0-7-|---------------------|
 ||-------------------|-7-7-7-7-7-7-7-7-7-7-|

|
| |-3-| |-3-|
| E E E E E E E E E E E E E E E E E E
 
 ||-------------------|---------------------|
 ||o------------------|---------------------|
 ||-------------------|---------------------|
 ||--10-----7---9---5-|---------------------|
 ||o----0-0---0---0---|---------------------|
 ||-------------------|-7-7-7-7-7-7-7-7-7-7-|

|-3-| |-3-|
[E] [E] [E] [E] [E] [E] [E] [E] [+E] [E] [E] [E] [E] [E] [E] [E] [E] [E]  
 
 |-----------------|-------------------------||
 |-----------------|------------------------o||
 |-----------------|-------------------------||
 |-----------------|-------------------------||
 |-6-----2---3---2-|-(2)--------------------o||
 |---0-0---0---0---|-----5-5-5-5-5-5-5-5-5---||

|
| |-3-| |-3-|
| E E E E E E E E +E E E E E E E E E E
 
 |-----------------|-------------------------||
 |-----------------|------------------------o||
 |-----------------|-------------------------||
 |-----------------|-------------------------||
 |-9-----6---7---6-|-(6)--------------------o||
 |---0-0---0---0---|-----5-5-5-5-5-5-5-5-5---||

[E] [E] [E] [E] [E] [E] [E] [E] [E] [E] [E] [E] [E] [E] [E] [E]  
 
 ||-------------------|-----------------|
 ||o------------------|-----------------|
 ||-------------------|-----------------|
 ||-------------------|-------7---5-----|
 ||o-7-----10---9---7-|-6---------------|
 ||----0-0----0---0---|---0-0---0---0-0-|

|
| E E E E E E E E E E E E E E E E
 
 ||-------------------|-----------------|
 ||o------------------|-----------------|
 ||-------------------|-----------------|
 ||-------------------|-------7---5-----|
 ||o-7-----10---9---7-|-6---------------|
 ||----0-0----0---0---|---0-0---0---0-0-|

1. 2.
E E E E E E Q E E E E E E Q E E E E E E Q
 
 |-----------------|-----------------||----------------|
 |-----------------|----------------o||----------------|
 |-----------------|-----------------||----------------|
 |-10-----9-----7--|-9-----7---------||----------------|
 |----0-0---0-0----|-------------10-o||-------------9--|
 |-----------------|---7-7---7-7-----||-7-7-7-8-7-7----|

|
| E E E E E E Q E E E E E E Q E E E E E E Q
 
 |-----------------|-----------------||----------------|
 |-----------------|----------------o||----------------|
 |-----------------|-----------------||----------------|
 |--7-----5-----4--|-5-----4------2--||----------------|
 |----0-0---0-0----|---2-2---2-2----o||-------7-----6--|
 |-----------------|-----------------||-7-7-7---7-7----|

S S S S S S S S S S S S S S S S S S S S S S S S S S S S S S S S
 
 ||----------------------------------|---------------------------------|
 ||o---------------------------------|---------------------------------|
 ||----------------------------------|---------------------------------|
 ||------------------5-5-5-5---------|-----------------5-5-5-5---------|
 ||o-7-7-7-7-------------------------|-7-7-7-7-----------------7-7-7-7-|
 ||----------5-5-5-5---------5-5-5-5-|---------5-5-5-5-----------------|

|
| S S S S S S S S S S S S S S S S S S S S S S S S S S S S S S S S
 
 ||----------------------------------|---------------------------------|
 ||o---------------------------------|---------------------------------|
 ||----------------------------------|---------------------------------|
 ||----------------------------------|---------------------------------|
 ||o-----------------7-7-7-7---------|-----------------7-7-7-7-7-7-7-7-|
 ||--8-8-8-8-5-5-5-5---------5-5-5-5-|-8-8-8-8-5-5-5-5-----------------|

S S S S S S S S S S S S S S S S S S S S S S S S S S S S S S S S
 
 |-----------------------------------------|------------------------------------------------|
 |-----------------------------------------|------------------------------------------------|
 |-----------------------------------------|------------------------------------------------|
 |----------------------9--9--9--9---------|----------------------9--9--9--9----------------|
 |-10-10-10-10-----------------------------|-10-10-10-10---------------------10-10-10-10----|
 |-------------7-7-7-7-------------7-7-7-7-|-------------7-7-7-7----------------------------|

|
| S S S S S S S S S S S S S S S S S S S S S S S S S S S S S S S S
 
 |-----------------------------------------|------------------------------------------------|
 |-----------------------------------------|------------------------------------------------|
 |-----------------------------------------|------------------------------------------------|
 |-----------------------------------------|------------------------------------------------|
 |--7--7--7--7---------10-10-10-10---------|--7--7--7--7---------10-10-10-10-10-10-10-10----|
 |-------------7-7-7-7-------------7-7-7-7-|-------------7-7-7-7----------------------------|

S S S S S S S S S S S S S S S S S S S S S S S S S S S S S S S S
 
 |-----------------------------------------|-----------------------------------------|
 |-----------------------------------------|-----------------------------------------|
 |-----------------------------------------|-----------------------------------------|
 |-10-10-10-10-----------------------------|-10-10-10-10-----------------------------|
 |---------------------12-12-12-12---------|---------------------12-12-12-12---------|
 |-------------8-8-8-8-------------8-8-8-8-|-------------8-8-8-8-------------8-8-8-8-|

|
| S S S S S S S S S S S S S S S S S S S S S S S S S S S S S S S S
 
 |-----------------------------------------|-----------------------------------------|
 |-----------------------------------------|-----------------------------------------|
 |-----------------------------------------|-----------------------------------------|
 |-----------------------------------------|-----------------------------------------|
 |-12-12-12-12----------9--9--9--9---------|-12-12-12-12----------9--9--9--9---------|
 |-------------8-8-8-8-------------8-8-8-8-|-------------8-8-8-8-------------8-8-8-8-|

1. 2.
S S S S S S S S S S S S S S S S S S S S S S S S S S S S S S S S E E E E E E E E
 
 |-----------------------------------------|------------------------------------------||---------------------|
 |-----------------------------------------|-----------------------------------------o||---------------------|
 |-----------------------------------------|------------------------------------------||---------------------|
 |--9--9--9--9-----------------------------|--9--9--9--9------------------------------||-----2---4---7-------|
 |---------------------10-10-10-10---------|---------------------10-10-10-10---------o||-3-----3---6----9----|
 |-------------7-7-7-7-------------7-7-7-7-|-------------7-7-7-7-------------7-7-7-7--||---5-----------------|

|
| S S S S S S S S S S S S S S S S S S S S S S S S S S S S S S S S E E E E E E E E
 
 |-----------------------------------------|------------------------------------------||---------------------|
 |-----------------------------------------|-----------------------------------------o||---------------------|
 |-----------------------------------------|------------------------------------------||---------------------|
 |-----------------------------------------|------------------------------------------||---------------------|
 |-10-10-10-10----------7--7--7--7---------|-10-10-10-10----------7--7--7--7---------o||-0---3---6---9-------|
 |-------------7-7-7-7-------------7-7-7-7-|-------------7-7-7-7-------------7-7-7-7--||---1---5---7---11----|

[4/4] Gtr I
[E] [E] [E] [E] [E] [E] [E] [E] [E] [E] [E] [E] [E] [E] [E] [E]  
 
 ||--------------------|------------------|
 ||o-------------------|------------------|
 ||--------------------|-9---9------------|
 ||-------9----9-------|-------9-10-7-----|
 ||o--------7----7-----|---7----------9-7-|
 ||--0-0-----------0-0-|------------------|

|
| Gtr II
| E E E E E E E E E E E E E E E E
 
 ||--------------------|------------------|
 ||o-------------------|------------------|
 ||--------------------|------------------|
 ||--------------------|-9---9----7-------|
 ||o-----10-7-10-7-----|---7---7----9-7---|
 ||--0-0-----------0-0-|----------------7-|

E E E E E E E E E E E E E E E E 4x W
 
 |-------------------|--------------------||------|
 |---------------8---|-------------------o||------|
 |-----------9-----9-|----------7---------||------|
 |------9------------|-10-7--------9-7----||------|
 |--------7----7-----|------9-7--------9-o||------|
 |-0-0---------------|--------------------||------|

|
| E E E E E E E E E E E E E E E E 4x W
 
 |-------------------|--------------------||------|
 |-------------------|-------------------o||------|
 |---------------9---|--------------------||------|
 |----------10-------|--7-------9---------||------|
 |-----10-7----7---7-|----9-7-----10-9-7-o||------|
 |-0-0---------------|--------7-----------||------|

Q S S E S S E S S E S S E S S E S S E S S E
 
 ||-----------------------|-------------------------|
 ||o----------------------|-------------------------|
 ||-----------------------|-------------------------|
 ||--9--------------------|-------------------------|
 ||o-7--------------------|-------------------------|
 ||-----0-0-0-0-0-0-0-0-0-|-0-0-0-0-0-0-0-0-0-0-0-0-|

|
| Q S S E S S E S S E S S E S S E S S E S S E
 
 ||-----------------------|-------------------------|
 ||o----------------------|-------------------------|
 ||-----------------------|-------------------------|
 ||--9--------------------|-------------------------|
 ||o-7--------------------|-------------------------|
 ||-----0-0-0-0-0-0-0-0-0-|-0-0-0-0-0-0-0-0-0-0-0-0-|

Q S S E S S E S S E Q S S E Q Q
 
 |----------------------|-----------------|
 |----------------------|-----------------|
 |----------------------|-----------------|
 |-8--------------------|-8--------8--11--|
 |-6--------------------|-6--------6---9--|
 |----0-0-0-0-0-0-0-0-0-|----0-0-0--------|

|
| Q S S E S S E S S E Q S S E Q Q
 
 |----------------------|-----------------|
 |----------------------|-----------------|
 |----------------------|-----------------|
 |-8--------------------|-8--------8--11--|
 |-6--------------------|-6--------6---9--|
 |----0-0-0-0-0-0-0-0-0-|----0-0-0--------|

Q S S E S S E S S E S S E S S E S S E S S E
 
 |----------------------|-------------------------|
 |----------------------|-------------------------|
 |----------------------|-------------------------|
 |-9--------------------|-------------------------|
 |-7--------------------|-------------------------|
 |----0-0-0-0-0-0-0-0-0-|-0-0-0-0-0-0-0-0-0-0-0-0-|

|
| Q S S E S S E S S E S S E S S E S S E S S E
 
 |----------------------|-------------------------|
 |----------------------|-------------------------|
 |----------------------|-------------------------|
 |-9--------------------|-------------------------|
 |-7--------------------|-------------------------|
 |----0-0-0-0-0-0-0-0-0-|-0-0-0-0-0-0-0-0-0-0-0-0-|

H E E E E Q E E E E E E
 
 |-----------------|------------------------|
 |-----------------|------------------------|
 |-----------------|------------------------|
 |-------10-7------|-----------10-7---------|
 |-10---------10-9-|-9----10-9------10-9----|
 |--8--------------|-7----------------------|

|
| H E E E E Q E E E E E E
 
 |-----------------|------------------------|
 |-----------------|------------------------|
 |-----------------|------------------------|
 |--------7--------|------------7-----------|
 |-10-------9--7-6-|-9-----6-9----9--7-6----|
 |--8--------------|-7----------------------|

Q S S E S S E S S E S S E S S E S S E S S E
 
 |----------------------|-------------------------|
 |----------------------|-------------------------|
 |----------------------|-------------------------|
 |-9--------------------|-------------------------|
 |-7--------------------|-------------------------|
 |----0-0-0-0-0-0-0-0-0-|-0-0-0-0-0-0-0-0-0-0-0-0-|

|
| Q S S E S S E S S E S S E S S E S S E S S E
 
 |----------------------|-------------------------|
 |----------------------|-------------------------|
 |----------------------|-------------------------|
 |-9--------------------|-------------------------|
 |-7--------------------|-------------------------|
 |----0-0-0-0-0-0-0-0-0-|-0-0-0-0-0-0-0-0-0-0-0-0-|

Q S S E S S E S S E Q S S E Q Q
 
 |----------------------|------------------|
 |----------------------|------------------|
 |----------------------|------------------|
 |-8--------------------|-8--------8--11---|
 |-6--------------------|-6--------6---9---|
 |----0-0-0-0-0-0-0-0-0-|----0-0-0---------|

|
| Q S S E S S E S S E Q S S E Q Q
 
 |----------------------|------------------|
 |----------------------|------------------|
 |----------------------|------------------|
 |-8--------------------|-8--------8--11---|
 |-6--------------------|-6--------6---9---|
 |----0-0-0-0-0-0-0-0-0-|----0-0-0---------|

Q S S E S S E S S E S S E S S E S S E S S E H. +Q W
 
 |----------------------|-------------------------|---------------|-------||
 |----------------------|-------------------------|---------------|------o||
 |----------------------|-------------------------|---------------|-------||
 |-9--------------------|-------------------------|---------------|-------||
 |-7--------------------|-------------------------|-10-------(x)--|-9----o||
 |----0-0-0-0-0-0-0-0-0-|-0-0-0-0-0-0-0-0-0-0-0-0-|--8-------(x)--|-7-----||

|
| Q S S E S S E S S E S S E S S E S S E S S E H. +Q W
 
 |----------------------|-------------------------|---------------|-------||
 |----------------------|-------------------------|---------------|------o||
 |----------------------|-------------------------|---------------|-------||
 |-9--------------------|-------------------------|---------------|-------||
 |-7--------------------|-------------------------|-10-------(x)--|-9----o||
 |----0-0-0-0-0-0-0-0-0-|-0-0-0-0-0-0-0-0-0-0-0-0-|--8-------(x)--|-7-----||

Gtrs I, II
[E] [E] [E] [E] [E] [E] [E] [E] [E] [E] [E] [E] [E] [E] [E] [E]  
 
 |----------------------------|-------------------------------|
 |----------------------------|-------------------------------|
 |----------------------------|-------------------------------|
 |----------------------------|-----------------------1-------|
 |--3-------------------------|-----------------3-------------|
 |-----2--2--2-----2--2--2--2-|--2--2-----2--2-----2-----2----|

|
| Gtr III
| E E E S S E E E E E S S E E E E E S S
 
 |-14-------------------------|-------------------------------|
 |----17-16-17p16----16-------|-------------------------------|
 |----------------17----17-16-|-14-16p14----14----------------|
 |----------------------------|----------17----17-16-14-16p14-|
 |----------------------------|-------------------------------|
 |----------------------------|-------------------------------|

[E] [E] [E] [E] [E] [E] [E] [E] [E] [E] [E] [E] [E] [E] [E] [E]  
 
 |-------------------------|-------------------|
 |-------------------------|-------------------|
 |-------------------------|-------------------|
 |--2----------------------|----------2---5----|
 |-------------------------|-------------------|
 |-----3--3--3--3--3--3--3-|--3-3-3-3---3---3--|

|
| ~~
| E E E E E E E E W
 
 |-------------------------|-------------------|
 |-------------------------|-------------------|
 |-------------------------|-------------------|
 |-13-14-13----------------|-------------------|
 |----------15-14-15-14----|-14----------------|
 |----------------------17-|-------------------|

[E] [E] [E] [E] [E] [E] [E] [E] [E] [E] [E] [E] [E] [E] [E] [E]  
 
 |-------------------------|-------------------------|
 |-------------------------|-------------------------|
 |-------------------------|-------------------------|
 |--4----------------------|-------------------------|
 |-------------------------|--------------9-----7----|
 |-----5--5--5--5--5--5--5-|--5--5--5--5-----5-----5-|

|
| E E E E E E E E E E E E E E E E
 
 |-------------------------|-------------------------|
 |-------------------------|-------------------------|
 |-------------------------|-------------12----------|
 |-------------14----------|-14-16-14-16----16-14-16-|
 |-14-15-14-15----15-14-15-|-------------------------|
 |-------------------------|-------------------------|

E E E E E E E E S S S S S S S S S S S S S S S S
 
 |-------------------------|-----------------------------------|
 |-------------------------|-----------------------------------|
 |-------------------------|-----------------------------------|
 |-------------------------|-----------------------------------|
 |--6----------------------|--3-3-3-3---------6-6-6-6----------|
 |-----2--2--2--2--2--2--2-|----------5-5-5-5---------0-0-0-0--|

|
| ~~
| E E E E E E E E W
 
 |-------------------------|-----------------------------------|
 |-------------13----------|-16--------------------------------|
 |-14-16-14-16----16-14-16-|-----------------------------------|
 |-------------------------|-----------------------------------|
 |-------------------------|-----------------------------------|
 |-------------------------|-----------------------------------|

[E] [E] [E] [E] [E] [E] [E] [E] [E] [E] [E] [E] [E] [E] [E] [E]  
 
 |----------------------------|-------------------------|
 |----------------------------|-------------------------|
 |----------------------------|-------------------------|
 |----------------------------|--------------------1----|
 |--3-------------------------|--------------3----------|
 |-----2--2--2--2--2--2--2----|--2--2--2--2-----2-----2-|

|
| E E E S S E E E E E E E E E E E E
 
 |-19-17-15-17p15----15-------|----------15-------------|
 |----------------19----19-17-|-16-17-19----19-17-15-16-|
 |----------------------------|-------------------------|
 |----------------------------|-------------------------|
 |----------------------------|-------------------------|
 |----------------------------|-------------------------|

[E] [E] [E] [E] [E] [E] [E] [E] [E] [E] [E] [E] [E] [E] [E] [E]  
 
 |----------------------------|----------------------|
 |----------------------------|----------------------|
 |----------------------------|----------------------|
 |--2-------------------------|--------------2---5---|
 |----------------------------|----------------------|
 |-----3--3--3--3--3--3--3----|--3--3--3--3----3---3-|

|
| ~~
| E E E S S E E E E E E E E H
 
 |----------------------------|----------------------|
 |-19-17-16-17p16----16-------|----------------------|
 |----------------17----17-16-|-16-17-16----16-------|
 |----------------------------|----------19----------|
 |----------------------------|----------------------|
 |----------------------------|----------------------|

[E] [E] [E] [E] [E] [E] [E] [E] [E] [E] [E] [E] [E] [E] [E] [E]  
 
 |----------------------------|----------------------------|
 |----------------------------|----------------------------|
 |----------------------------|----------------------------|
 |--4-------------------------|----------------------------|
 |----------------------------|-----------------9-----7----|
 |-----5--5--5-----5--5--5--5-|--5--5-----5--5-----5-----5-|

|
| E E E S S E E E E E S S E E E E E E
 
 |----------------------------|----------------------------|
 |----------------------------|----------------------------|
 |-17-16----------------------|----------------------------|
 |-------19-21p19-17-19-17----|----------------------------|
 |-------------------------21-|-19-21p19-18-19-18----------|
 |----------------------------|-------------------20-19-20-|

E E E E E E E E S S S S S S S S S S S S S S S S
 
 |----------------------------|-----------------------------------|
 |----------------------------|-----------------------------------|
 |----------------------------|-----------------------------------|
 |----------------------------|-----------------------------------|
 |--6-------------------------|--3-3-3-3---------6-6-6-6----------|
 |-----2--2--2--2-----2--2--2-|----------5-5-5-5---------0-0-0-0--|

|
| ~~
| E E E E S S E E E W
 
 |----------------------------|-----------------------------------|
 |----------------------------|-----------------------------------|
 |----------------------------|-----------------------------------|
 |----------------------------|-----------------------------------|
 |-18-19-18-------------18----|-----------------------------------|
 |----------20-19h20p19----20-|-19--------------------------------|

Q=200
W +H E Q E
 
 |-------------------------------------|------------------------------------------|
 |-------------------------------------|------------------------------------------|
 |-------------------------------------|------------------------------------------|
 |--2----------------------------------|-(2)--------------------------------------|
 |--2----------------------------------|-(2)--------------------------------------|
 |--0----------------------------------|-(0)-----------------0----3----------0----|

|
 
 | |------6-------| |------6-------| |-------6-------| |--------6---------|

| E E E E E E E E E E E E E E E E E E E E E E E E
 
 |-14-12----12-------------------------|------------------------------------------|
 |-------16----16-13-16-13----13-------|------------------------------------------|
 |-------------------------16----16-14-|-16--14-12-14-12----12--------------------|
 |-------------------------------------|-----------------16----16---14-16-14---12-|
 |-------------------------------------|------------------------------------------|
 |-------------------------------------|------------------------------------------|

\0.5
W +H. Q
 
 |-------------------------------------|---------------------------------------|
 |-------------------------------------|---------------------------------------|
 |-------------------------------------|---------------------------------------|
 |--7----------------------------------|-(7)-----------------------------------|
 |--7----------------------------------|-(7)-----------------------------------|
 |--5----------------------------------|-(5)----------------------------3------|

|
 
 | |------6-------| |------6-------| |--------6--------| |-----6-----|

| E E E E E E E E E E E E E E E E E E E E E E Q
 
 |-------------------------------------|---------------------------------------|
 |-------------------------------------|---------------------------------------|
 |-------------------------------------|---------------------------------------|
 |-14-13----13-------------------------|---------------------------------------|
 |-------15----15-14-15-14-12-14-12-10-|-12----10----10------------------------|
 |-------------------------------------|----------14----14-12-14-12-11-12-11---|

Gtr I
W +W
 
 |-----------------------------------------|--------------------------------------------------|
 |-----------------------------------------|--------------------------------------------------|
 |-----------------------------------------|--------------------------------------------------|
 |-4---------------------------------------|-(4)----------------------------------------------|
 |-4---------------------------------------|-(4)----------------------------------------------|
 |-2---------------------------------------|-(2)----------------------------------------------|

|
| Gtr II
| W +W
 
 |-----------------------------------------|--------------------------------------------------|
 |-----------------------------------------|--------------------------------------------------|
 |-----------------------------------------|--------------------------------------------------|
 |-4---------------------------------------|-(4)----------------------------------------------|
 |-4---------------------------------------|-(4)----------------------------------------------|
 |-2---------------------------------------|-(2)----------------------------------------------|

|
| Gtr III
| S S S S S S S S S S S S S S S S S S S S S S S S S S S S S S S S
 
 |-----------------------------------------|--------------------------------------------------|
 |-----------------------------------------|--------------------------------------------------|
 |-----------------------------------------|--------------------------------------------------|
 |-----------------------------------------|--------------------------------------------------|
 |---------------------------------9-9-9-9-|-10--10-10-10-12-12-12-12-14-14-14-14-15-15-15-15-|
 |-8-8-8-8-11-11-11-11-12-12-12-12---------|--------------------------------------------------|

PM
H. Q W
 
 |--------------------------------------------------|--------------|
 |--------------------------------------------------|--------------|
 |--------------------------------------------------|--------------|
 |--------------------------------------------------|--------------|
 |--2-----------------------------------------------|--6-----------|
 |---------------------------------------0----------|--------------|

|
| PM
| H. Q W
 
 |--------------------------------------------------|--------------|
 |--------------------------------------------------|--------------|
 |--------------------------------------------------|--------------|
 |--------------------------------------------------|--------------|
 |--7-----------------------------------------------|--9-----------|
 |---------------------------------------0----------|--------------|

|
| ~~~
| S S S S S S S S S S S S S S S S H. Q
 
 |--------------------------------------------------|--------------|
 |--------------------------------------------------|--------------|
 |--------------------------------------------------|----------16--|
 |-13--13-13-13-------------------------------------|--------------|
 |--------------15-15-15-15-14-14-14-14-15-15-15-15-|-14-----------|
 |--------------------------------------------------|--------------|

Gtrs I, II
W +W
 
 |-----------------|------------------------|
 |-----------------|------------------------|
 |-----------------|------------------------|
 |--2--------------|--(2)-------------------|
 |--2--------------|--(2)-------------------|
 |--0--------------|--(0)-------------------|

|
| Gtr III
| |--3--|
| E E Q H +Q E E E Q Q
 
 |-----------------|-------17-17-17---------|
 |-20-20-19--17----|-(17)-----------20--19--|
 |-----------------|------------------------|
 |-----------------|------------------------|
 |-----------------|------------------------|
 |-----------------|------------------------|

W +H. Q
 
 |----------------|--------------------------|
 |----------------|--------------------------|
 |----------------|--------------------------|
 |---7------------|--(7)---------------------|
 |---7------------|--(7)---------------------|
 |---5------------|--(5)------------------3--|

|
| ~~~~~~~~~~~~
| |--3--|
| Q Q H +Q E E E E Q.
 
 |-/20--19--------|--------------------------|
 |----------16----|-(16)--16-16-16-16h17-----|
 |----------------|--------------------------|
 |----------------|--------------------------|
 |----------------|--------------------------|
 |----------------|--------------------------|

Gtr I
W
 
 |----------------------------------------|
 |----------------------------------------|
 |----------------------------------------|
 |--4-------------------------------------|
 |--4-------------------------------------|
 |--2-------------------------------------|

|
| Gtr II
| W
 
 |----------------------------------------|
 |----------------------------------------|
 |----------------------------------------|
 |--4-------------------------------------|
 |--4-------------------------------------|
 |--2-------------------------------------|

|
| Gtr III
 
 | |--------6--------| |------6-------|

| E E E E S S E E E E E E E
 
 |----------17-19h20-17-19-17----17-------|
 |-17-19-20-------------------20----20-19-|
 |----------------------------------------|
 |----------------------------------------|
 |----------------------------------------|
 |----------------------------------------|

PM PM
+H. Q H. Q W
 
 |--------------------------------------|----------------|-------|
 |--------------------------------------|----------------|-------|
 |--------------------------------------|----------------|-------|
 |-(4)----------------------------------|----------------|-------|
 |-(4)----------------------------------|--2-------------|--6----|
 |-(2)--------------------------0-------|-----------0----|-------|

|
| PM PM
| +H. Q H. Q W
 
 |--------------------------------------|----------------|-------|
 |--------------------------------------|----------------|-------|
 |--------------------------------------|----------------|-------|
 |-(4)----------------------------------|----------------|-------|
 |-(4)----------------------------------|--7-------------|--9----|
 |-(2)--------------------------0-------|-----------0----|-------|

|
| ~~~ ~~
 
 | |-------6-------| |------6-------|

| E E E E E E E E E E E E H. E E W
 
 |--------------------------------------|----------------|-------|
 |-20--19-17-19-17----19----------------|----------------|-------|
 |-----------------20----20-17-20-17----|-17----------17-|-------|
 |-----------------------------------21-|----------21----|-21----|
 |--------------------------------------|----------------|-------|
 |--------------------------------------|----------------|-------|

Gtrs I, II
\0.5
W +H. Q W +H. Q
 
 |---------------|----------------------|--------------|----------------|
 |---------------|----------------------|--------------|----------------|
 |---------------|----------------------|--------------|----------------|
 |--2------------|--(2)-----------------|--7-----------|-(7)------------|
 |--2------------|--(2)-----------------|--7-----------|-(7)------------|
 |--0------------|--(0)--------------3--|--5-----------|-(5)--------3---|

|
| Gtr III
| ~~~~~~~~~~~~ ~~~ ~~~~~
| Q Q H +Q Q a Q Q H. Q W
 
 |---------------|-------17--17S19--17--|----------17--|----------------|
 |---------------|----------------------|-20-----------|-19-------------|
 |-17--16--14----|-(14)-----------------|--------------|----------------|
 |---------------|----------------------|--------------|----------------|
 |---------------|----------------------|--------------|----------------|
 |---------------|----------------------|--------------|----------------|

|
| Gtr IV
| ~~~ ~~~~~
| W W H. Q W
 
 |---------------|----------------------|--------------|----------------|
 |---------------|----------------------|----------19--|----------------|
 |---------------|----------------------|--------------|-20-------------|
 |---------------|----------------------|-21-----------|----------------|
 |---------------|----------------------|--------------|----------------|
 |---------------|----------------------|--------------|----------------|

Gtrs I, II
W +W
 
 |-------------------------|--------------------------|
 |-------------------------|--------------------------|
 |-------------------------|--------------------------|
 |--4----------------------|-(4)----------------------|
 |--4----------------------|-(4)----------------------|
 |--2----------------------|-(2)----------------------|

|
| Gtr III
| E E E E E E E E E E E E E E E E
 
 |-19----17----------------|--------------------------|
 |----20----19-20-17-19----|--------------------------|
 |----------------------20-|-21--17-20----17----16----|
 |-------------------------|-----------21----19----17-|
 |-------------------------|--------------------------|
 |-------------------------|--------------------------|

|
| Gtr IV
| E E E E E E E E E E E E E E E E
 
 |-15----14----------------|--------------------------|
 |----17----16-17----16----|--------------------------|
 |----------------17----16-|-17-----16----------------|
 |-------------------------|-----19----17-19-16-17----|
 |-------------------------|-----------------------19-|
 |-------------------------|--------------------------|

PM
H. Q W
 
 |--------------------------|-------|
 |--------------------------|-------|
 |--------------------------|-------|
 |-/2-----------------------|--4----|
 |-/2-----------------------|--6----|
 |---------------------0----|-------|

|
| ~~
| E E E E E E E E W
 
 |--------------------------|-------|
 |--------------------------|-------|
 |--------------------------|-------|
 |-19-----17----16----------|-------|
 |-----21----19----18-19----|-------|
 |-----------------------20-|-19----|

|
| ~~
| E E E E E E E E W
 
 |--------------------------|-------|
 |--------------------------|-------|
 |--------------------------|-------|
 |-16-----------------------|-------|
 |-----18-19-15-18----15----|-------|
 |-----------------19----17-|-15----|

Gtrs I, II
W +W W +H. Q
 
 |----------|---------------|-----------|--------------|
 |----------|---------------|-----------|--------------|
 |----------|---------------|-----------|--------------|
 |-2--------|-(2)-----------|--7--------|-(7)----------|
 |-2--------|-(2)-----------|--7--------|-(7)----------|
 |-0--------|-(0)-----------|--5--------|-(5)-------3--|

|
| Gtr III
| W +H H W W
 
 |----------|---------------|-----------|--------------|
 |----------|---------------|-----------|--------------|
 |-9--------|-(9)----11-----|-12--------|-14-----------|
 |----------|---------------|-----------|--------------|
 |-7--------|-(7)-----9-----|-10--------|-12-----------|
 |----------|---------------|-----------|--------------|

Gtr I
W +W W W
 
 |----------------|-----------------|-----------|---------|
 |----------------|-----------------|-----------|---------|
 |----------------|-----------------|-----------|---------|
 |--4-------------|--(4)------------|-----------|---------|
 |--4-------------|--(4)------------|--2--------|---6-----|
 |--2-------------|--(2)------------|-----------|---------|

|
| Gtr II
| W +W W W
 
 |----------------|-----------------|-----------|---------|
 |----------------|-----------------|-----------|---------|
 |----------------|-----------------|-----------|---------|
 |--4-------------|--(4)------------|-----------|---------|
 |--4-------------|--(4)------------|--6--------|---9-----|
 |--2-------------|--(2)------------|-----------|---------|

|
| Gtr III
| W +W W +W
 
 |----------------|-----------------|-----------|---------|
 |----------------|-----------------|-----------|---------|
 |-17-------------|-(17)------------|-16--------|-(16)----|
 |----------------|-----------------|-----------|---------|
 |-15-------------|-(15)------------|-14--------|-(14)----|
 |----------------|-----------------|-----------|---------|

Q=220
S S S S S S S S S S S S S S S S S S S S S S S S S S S S S S S S
 
 ||----------------------------------|---------------------------------|
 ||o---------------------------------|---------------------------------|
 ||----------------------------------|---------------------------------|
 ||------------------5-5-5-5---------|-----------------5-5-5-5---------|
 ||o-7-7-7-7-------------------------|-7-7-7-7-----------------7-7-7-7-|
 ||----------5-5-5-5---------5-5-5-5-|---------5-5-5-5-----------------|

|
| S S S S S S S S S S S S S S S S S S S S S S S S S S S S S S S S
 
 ||----------------------------------|---------------------------------|
 ||o---------------------------------|---------------------------------|
 ||----------------------------------|---------------------------------|
 ||----------------------------------|---------------------------------|
 ||o-----------------7-7-7-7---------|-----------------7-7-7-7-7-7-7-7-|
 ||--8-8-8-8-5-5-5-5---------5-5-5-5-|-8-8-8-8-5-5-5-5-----------------|

S S S S S S S S S S S S S S S S S S S S S S S S S S S S S S S S
 
 |-----------------------------------------|------------------------------------------------|
 |-----------------------------------------|------------------------------------------------|
 |-----------------------------------------|------------------------------------------------|
 |----------------------9--9--9--9---------|----------------------9--9--9--9----------------|
 |-10-10-10-10-----------------------------|-10-10-10-10---------------------10-10-10-10----|
 |-------------7-7-7-7-------------7-7-7-7-|-------------7-7-7-7----------------------------|

|
| S S S S S S S S S S S S S S S S S S S S S S S S S S S S S S S S
 
 |-----------------------------------------|------------------------------------------------|
 |-----------------------------------------|------------------------------------------------|
 |-----------------------------------------|------------------------------------------------|
 |-----------------------------------------|------------------------------------------------|
 |--7--7--7--7---------10-10-10-10---------|--7--7--7--7---------10-10-10-10-10-10-10-10----|
 |-------------7-7-7-7-------------7-7-7-7-|-------------7-7-7-7----------------------------|

S S S S S S S S S S S S S S S S S S S S S S S S S S S S S S S S
 
 |-----------------------------------------|-----------------------------------------|
 |-----------------------------------------|-----------------------------------------|
 |-----------------------------------------|-----------------------------------------|
 |-10-10-10-10-----------------------------|-10-10-10-10-----------------------------|
 |---------------------12-12-12-12---------|---------------------12-12-12-12---------|
 |-------------8-8-8-8-------------8-8-8-8-|-------------8-8-8-8-------------8-8-8-8-|

|
| S S S S S S S S S S S S S S S S S S S S S S S S S S S S S S S S
 
 |-----------------------------------------|-----------------------------------------|
 |-----------------------------------------|-----------------------------------------|
 |-----------------------------------------|-----------------------------------------|
 |-----------------------------------------|-----------------------------------------|
 |-12-12-12-12----------9--9--9--9---------|-12-12-12-12----------9--9--9--9---------|
 |-------------8-8-8-8-------------8-8-8-8-|-------------8-8-8-8-------------8-8-8-8-|

1.,2.,3. 4.
S S S S S S S S S S S S S S S S S S S S S S S S S S S S S S S S 4x E E E E E E E E
 
 |-----------------------------------------|------------------------------------------||---------------------|
 |-----------------------------------------|-----------------------------------------o||---------------------|
 |-----------------------------------------|------------------------------------------||---------------------|
 |--9--9--9--9-----------------------------|--9--9--9--9------------------------------||-----2---4---7-------|
 |---------------------10-10-10-10---------|---------------------10-10-10-10---------o||-3-----3---6----9----|
 |-------------7-7-7-7-------------7-7-7-7-|-------------7-7-7-7-------------7-7-7-7--||---5-----------------|

|
| S S S S S S S S S S S S S S S S S S S S S S S S S S S S S S S S 4x E E E E E E E E
 
 |-----------------------------------------|------------------------------------------||---------------------|
 |-----------------------------------------|-----------------------------------------o||---------------------|
 |-----------------------------------------|------------------------------------------||---------------------|
 |-----------------------------------------|------------------------------------------||---------------------|
 |-10-10-10-10----------7--7--7--7---------|-10-10-10-10----------7--7--7--7---------o||-0---3---6---9-------|
 |-------------7-7-7-7-------------7-7-7-7-|-------------7-7-7-7-------------7-7-7-7--||---1---5---7---11----|

Gtrs I, II
Q H.
 
 |----------*|
 |----------*|
 |----------*|
 |-2--------*|
 |-2--------*|
 |-0--------*|

Duration Legend
 
 ---------------
 W - whole; H - half; Q - quarter; E - 8th; S - 16th; T - 32nd; X - 64th; a - acciaccatura

+ - note tied to previous; . - note dotted; .. - note double dotted
Uncapitalized letters represent notes that are staccato (1/2 duration)
Irregular groupings are notated above the duration line
Duration letters will always appear directly above the note/fret number it represents the
duration for. Duration letters with no fret number below them represent rests. Multi-
bar rests are notated in the form Wxn, where n is the number of bars to rest for. Low
melody durations appear below the staff
Tablature Legend
 
 ----------------

h - hammer-on
p - pull-off
b - bend
pb - pre-bend
r - bend release (if no number after the r, then release immediately)
/\ - slide into or out of (from/to "nowhere")
s - legato slide
S - shift slide
- natural harmonic
(n) - artificial harmonic
n(n) - tapped harmonic
~ - vibrato
tr - trill
T - tap
TP - trem. picking
PM - palm muting
\n/ - tremolo bar dip; n = amount to dip
\n - tremolo bar down
n/ - tremolo bar up
/n\ - tremolo bar inverted dip
= - hold bend; also acts as co

Important: The song above is NOT stored on the Chordie server. The original song is hosted at www.guitaretab.com. Chordie works as a search engine and provides on-the-fly formatting. Chordie does not index songs against artists'/composers' will. To remove this song please click here.

Text color:
Chord color:
Chord grids: 
Font size:    
Page size: 

E
Rate #1 of 4 versions

Jango Player

Login - add to songbook

SHARE PAGE  




You need to log in to post comments