Guitar Tabs, Chords and Lyrics
Major upgrade!! After one year development the new version of Chordie is now online! Please give feedback.


Set You Free   The Black Keys

 
 e|-----------------|---------------|-----------------|----------------|
 B|-----------------|---------------|-----------------|----------------|
 G|-5-5*------------|-2-2*----------|-5-5*------------|-2-2*-----------|
 D|-5-5*------------|-2-2*----------|-5-5*------------|-2-2*-----------|
 A|-3-3*------------|-0-0*----------|-3-3*------------|-0-0*-----------|
 E|-----------------|---------------|-----------------|----------------|

 


 


 Guitar II (Solo)


 [+] [2] [+] [3] [+] [4] [+] [+] [2] [+] [3] [+] [4] [+] [2] [+] [3] [+] [4] [+] [1] [2] [3] [+] [4]  

 
 e|-----------------|---------------|-----------------|----------------|
 B|---8-----6-------|---8-----6-6br-|---8-----6-------|-8------6-------|
 G|-----5-7---7-5---|-----5-7-------|-----5-7---7-5---|----5h7---------|
 D|---------------5-|---------------|---------------5-|----------5-5h7-|
 A|-----------------|---------------|-----------------|----------------|
 E|-----------------|---------------|-----------------|----------------|

 


 


 Guitar I (Rhythem)


 [1] [+] [1] [+] [1] [+] [1] [+]  

 
 e|-----------------|---------------|-----------------|-----------------|
 B|-----------------|---------------|-----------------|-----------------|
 G|-5-5*------------|-2-2*----------|-5-5*------------|-2-2*------------|
 D|-5-5*------------|-2-2*----------|-5-5*------------|-2-2*------------|
 A|-3-3*------------|-0-0*----------|-3-3*------------|-0-0*------------|
 E|-----------------|---------------|-----------------|-----------------|

 


 


 Guitar II (Solo)


 [1] [+] [+] [3] [1] [+] [+] [3] [+] [2] [+] [3] [+] [4] [+] [1] [+] [2] [+] [3] [+] [4] [+]  

 
 e|-----------------|---------------|-----------------|-----------------|
 B|17-13------------|17-13----------|---8-----6-------|-----------------|
 G|--------12h14-12-|------14-14h17-|-----5-7--7-5----|-2-2-2-2-7-7-7-7-|
 D|-----------------|---------------|---------------5-|-2-2-2-2-7-7-7-7-|
 A|-----------------|---------------|-----------------|-0-0-0-0-5-5-5-5-|
 E|-----------------|---------------|-----------------|-----------------|


Important: The song above is NOT stored on the Chordie server. The original song is hosted at www.guitaretab.com. Chordie works as a search engine and provides on-the-fly formatting. Chordie does not index songs against artists'/composers' will. To remove this song please click here.

This song is displayed as text-only. Transposing and tuning is only available for chordpro-songs.
Rate #1 of 3 versions

Jango Player

Login - add to songbook

SHARE PAGE  




You need to log in to post comments