Guitar Tabs, Chords and Lyrics
Major upgrade!! After one year development the new version of Chordie is now online! Please give feedback.


Stack Shot Billy   The Black Keys

 
 Eb|-3h5--3h5p3--3h5/8--5p3----------------------|
 C |-0----0------0------0-----1------------------|
 Ab|----------------------------3bp0-------------|
 Eb|---------------------------------------------|
 Ab|---------------------------------------------|
 Eb|---------------------------------------------|

 


 


 0:09


 


 

 
 Eb|-------------------------------------3---3h5-|
 C |-------------------------1h3p1---1/3---3-3---|
 Ab|-------------0-3p0---0-3-------3-------------|
 Eb|-----------3-------3-------------------------|
 Ab|-0---0-3p0-----------------------------------|
 Eb|---3-----------------------------------------|

 


 


 0:13


 


 

 
 Eb|-5----5-5h8p5-----3h5-3----------------------|
 C |-0-5b---------5\3-------3-1------------------|
 Ab|---------------------------3b-0---------0h3b-|
 Eb|----------------------------------3h5--------|
 Ab|--------------------------------0-----0------|
 Eb|---------------------------------------------|

 


 


 0:17


 


 

 
 Eb|---------------------------|
 C |---------------------------|
 Ab|-----0---------------------|
 Eb|---------------------------|
 Ab|--3b---0---------0---------|
 Eb|--------------3---------3--|

 


 


 


 Bridge:


 


 0:22


 


 

 
 Eb|--------------------------------|
 C |-3---1------------1-3-----------|
 Ab|--------3-0---0-3-----3---------|
 Eb|------------3-------------------|
 Ab|-0---0--0-------0---0----0-3-0--|
 Eb|--------------------------------|

 


 


 0:27


 


 

 
 Eb|--------------------------------|
 C |-1h3-1--------------1-----------|
 Ab|--------3b-0---0-3b---3-3bp0----|
 Eb|-------------3------------------|
 Ab|-0---0-----------------------3--|
 Eb|--------------------------------|

 


 


 0:32


 


 

 
 Eb|--------------------------------|
 C |-1h3-1-------------1-3----------|
 Ab|--------3bp0---0-3-----3v-------|
 Eb|-------------3------------------|
 Ab|-0-----------------------0-3-0--|
 Eb|--------------------------------|

 


 


 0:37


 


 

 
 Eb|-----------------------------x--|
 C |-1h3-1-------------1---------x--|
 Ab|--------3bp0---0-3---3-3p0---x--|
 Eb|-------------3------------------|
 Ab|-0------------------------------|
 Eb|--------------------------------|

 


 


 


 Verse 1:


 


 0:42


 Stack shot Billy in the back of the head


 

 
 Eb|----------------------------------------------------------------------|
 C |-3-------1---------------------------1---3----------------------------|
 Ab|-----------------3---0-------0---3-----------3------------------------|
 Eb|-------------------------3--------------------------------------------|
 Ab|-0--[0]--0--[0]--0-------0-------0-------0-------[0]--[0]--0---3---0--|
 Eb|----------------------------------------------------------------------|

 


 


 0:46


 Stack made sure Billy Lyons was dead


 

 
 Eb|----------------------------------------------------------------------|
 C |-1h3-----1---------------------------1--------------------------------|
 Ab|-----------------3-----------0---3-------3---3p0----------------------|
 Eb|-------------------------3--------------------------------------------|
 Ab|-0--[0]--0--[0]--0-------0-------0-------0-------[0]--[0]--0---3---0--|
 Eb|----------------------------------------------------------------------|

 


 


 0:51


 .45 pistol down in Stack's right hand


 

 
 Eb|----------------------------------------------------------------------|
 C |-1h3-----1---------------------------1---3----------------------------|
 Ab|-----------------3bp0--------0---3-----------3------------------------|
 Eb|-------------------------3--------------------------------------------|
 Ab|-0--[0]--0--[0]--0-------0-------0-------0-------[0]--[0]--0---3---0--|
 Eb|----------------------------------------------------------------------|

 


 


 0:55


 Sent him away to the promised land


 

 
 Eb|-----------------------------------------------------|
 C |-1h3-----1---------------------------1---------------|
 Ab|-----------------3-----------0---3-------3--3p0---0--|
 Eb|-------------------------3------------------------0--|
 Ab|-0--[0]--0--[0]--0-------0-------0-------0--------0--|
 Eb|-----------------------------------------------------|

 


 


 


 Chorus 1:


 


 1:00


 Stack shot Billy


 

 
 Eb|---------------5~p3p0-----------|
 C |--5--5--5\3-----------1---------|
 Ab|--5--5--5\3-------------3b-0----|
 Eb|--5--5--5\3---------------------|
 Ab|--5--5--5\3---------------------|
 Eb|--------------------------------|

 


 


 1:04


 Forty fi-hive


 

 
 Eb|--------------------------------|
 C |--5--5--5\3---1h3-1-------------|
 Ab|--5--5--5\3---------3b-0----0---|
 Eb|--5--5--5\3--------------3b-----|
 Ab|--5--5--5\3---------------------|
 Eb|--------------------------------|

 


 


 1:08


 Stack Shot Billy


 

 
 Eb|--------------------------------|
 C |--5--5--5\3-------1-------------|
 Ab|--5--5--5\3---------3b-0----0---|
 Eb|--5--5--5\3--------------3b-----|
 Ab|--5--5--5\3---------------------|
 Eb|--------------------------------|

 


 


 1:12


 Billy laid down and died


 

 
 Eb|----------------------------x---|
 C |--1h3-1---------------------x---|
 Ab|----------3b--0-------------x---|
 Eb|------------------3/5-------x---|
 Ab|--0---0---0---------------------|
 Eb|--------------------------------|

 


 


 


 Bridge:


 


 1:17


 


 

 
 Eb|----------------------------------------------------------------------|
 C |-1h3-----1---------------------------1---3----------------------------|
 Ab|-----------------3b--0-------0---3-----------3v-----------------------|
 Eb|-------------------------3--------------------------------------------|
 Ab|-0--[0]--0--[0]--0-------0-------0-------0-------[0]--[0]--0---3---0--|
 Eb|----------------------------------------------------------------------|

 


 


 1:22


 


 

 
 Eb|----------------------------------------------------------------------|
 C |-1h3-----1---------------------------1--------------------------------|
 Ab|-----------------3b--0-------0---3-------3---3p0----------------------|
 Eb|-------------------------3--------------------------------------------|
 Ab|-0--[0]--0--[0]--0-------0-------0-------0-------[0]--[0]--0---3---0--|
 Eb|----------------------------------------------------------------------|

 


 


 


 Verse 2:


 


 


 Pretty much exactly the same as Verse 1


 


 Stack Lee had himself an evil brain


 Loved his gun and his sweet cocaine


 Stack got quiet when the shadows fell


 He knew soon enough that he'd burn in hell


 


 


 Chorus 2:


 


 1:43


 Stack shot Billy


 

 
 Eb|---------------5~p3p0-----------|
 C |--5--5--5\3-----------1---------|
 Ab|--5--5--5\3-------------3b-0----|
 Eb|--5--5--5\3---------------------|
 Ab|--5--5--5\3---------------------|
 Eb|--------------------------------|

 


 


 1:48


 Forty fi-ive


 

 
 Eb|------------------1-------------|
 C |--5--5--5\3---1/3---3\1---------|
 Ab|--5--5--5\3-------------3p0-----|
 Eb|--5--5--5\3---------------------|
 Ab|--5--5--5\3-----------------3p0-|
 Eb|--------------------------------|

 


 


 1:52


 Stack Shot Billy


 

 
 Eb|---------------5~p3p0-----------|
 C |--5--5--5\3-----------1---------|
 Ab|--5--5--5\3-------------3b-0----|
 Eb|--5--5--5\3---------------------|
 Ab|--5--5--5\3---------------------|
 Eb|--------------------------------|

 


 


 1:56


 Billy laid down and died


 

 
 Eb|----------------------------x---|
 C |--1h3-1---------------------x---|
 Ab|----------3b--0-------------x---|
 Eb|------------------3/5-------x---|
 Ab|--0---0---0---------------------|
 Eb|--------------------------------|

 


 


 


 Solo:


 


 


 2:00


 Part 1 - Just the 4 parts of the main riff


 played with the wah. won't tab this.


 


 


 2:17


 Part 2 - Like the chorus but with different


 fills inbetween. Will tab this.


 


 


 

 
 Eb|--------------------11----------|
 C |--5--5--5\3---11/13----11/13----|
 Ab|--5--5--5\3------------------13-|
 Eb|--5--5--5\3---------------------|
 Ab|--5--5--5\3---------------------|
 Eb|--------------------------------|

 


 ==============================


 


 

 
 Eb|--------------------11----11----11-------------|
 C |--5--5--5\3---11/13----13----13----------------|
 Ab|--5--5--5\3------------------------11/13-11\0--|
 Eb|--5--5--5\3------------------------------------|
 Ab|--5--5--5\3------------------------------------|
 Eb|-----------------------------------------------|

 


 ===========================================


 


 


 

 
 Eb|--------------------16----16----------|
 C |--5--5--5\3---13/16----16----12/14----|
 Ab|--5--5--5\3-------------------------0-|
 Eb|--5--5--5\3-------------------------0-|
 Ab|--5--5--5\3-------------------------0-|
 Eb|--------------------------------------|

 


 ================================


 


 


 

 
 Eb|----------------------------x---|
 C |--1h3-1---------------------x---|
 Ab|----------3b--0-------------x---|
 Eb|------------------3/5-------x---|
 Ab|--------------------------------|
 Eb|--------------------------------|

 


 


 


 Verse 3:


 


 


 Just like Verse 1


 


 


 Chorus 3:


 


 Stack shot Billy


 

 
 Eb|---------------5~p3p0-----------|
 C |--5--5--5\3-----------1---------|
 Ab|--5--5--5\3-------------3b-0----|
 Eb|--5--5--5\3---------------------|
 Ab|--5--5--5\3---------------------|
 Eb|--------------------------------|

 


 


 Forty fi-ive


 

 
 Eb|-----------------------------------|
 C |--5--5--5\3-------1----------------|
 Ab|--5--5--5\3---------3b-0-----------|
 Eb|--5--5--5\3--------------3b-0------|
 Ab|--5--5--5\3-------------------3b-0-|
 Eb|-----------------------------------|

 


 


 Stack Shot Billy


 

 
 Eb|---------------------3-5-5-5-5-5---|
 C |--5--5--5\3------1/3-3-3-3-3-3-3---|
 Ab|--5--5--5\3------------------------|
 Eb|--5--5--5\3------------------------|
 Ab|--5--5--5\3------------------------|
 Eb|-----------------------------------|

 


 


 


 Billy laid down and died


 

 
 Eb|------------------------|
 C |--1h3-1-----------------|
 Ab|----------3---0---------|
 Eb|------------------3/5---| END
 Ab|------------------------|
 Eb|------------------------|


Important: The song above is NOT stored on the Chordie server. The original song is hosted at www.guitaretab.com. Chordie works as a search engine and provides on-the-fly formatting. Chordie does not index songs against artists'/composers' will. To remove this song please click here.

This song is displayed as text-only. Transposing and tuning is only available for chordpro-songs.
Rate #1 of 2 versions

Login - add to songbook

SHARE PAGE  



You need to log in to post comments