Guitar Tabs, Chords and Lyrics
Server problems seems to be fixed. Chordie has been experiencing problems with songs disappearing. These issues now seems to be fixed, but still verifying the fix. If you find anything strange, please email admin@chordie.com.


God Is Dead?  Black Sabbath

FLAT STANDARD TUNING
[Eb] [Ab] [Db] [Gb] [Bb] [Eb]  
tabbed by andherembrace
 
 --------------------------------------------------------------------|
 --------------------------------------------------------------------|
 -------0-------0-------0-------0-------0-------0--------0-------0---|
 -----9-------8-------9-------8-------9-------8-------10-------8-----|
 ---7-------7-------7-------7-------7-------7-------7--------7-------|
 -0-------0-------0-------0-------0-------0-------0--------0---------|
 --------------------------------------------------------------------|
 --------------------------------------------------------------------|
 -------0-------0-------0-------0-------0-------0--------0-------0---|
 -----9-------8-------9-------8-------9-------8-------10-------8-----|
 ---7-------7-------7-------7-------7-------7-------7--------7-------|
 -0-------0-------0-------0-------0-------0-------0--------0---------|

0:33
 
 --------------------------------------------------------------------|
 --------------------------------------------------------------------|
 --------------------------------------------------------------------|
 -7-9-----------7-9---11--12--------7-9-----------7-9---11--12-----7-|
 -5-7-----------5-7----9--10--------5-7-----------5-7----9--10-----5-|
 --------------------------------------------------------------------|

~ ~
 
 -----------------------------------------------------------------------|
 -----------------------------------------------------------------------|
 -----------------------------------------------------------------------|
 -7-9-----------7-9---11--12--------7-9-----------7-9-------------------|
 -5-7-----------5-7----9--10--------5-7-----------5-7---9--8----5-------|
 -------------------------------------------------------7--6----3----0--|

~
1:04
 
 -------------------------------------------------------------------|
 -------------------------------------------------------------------|
 -------0-------0-------0-------0-------0-------0-------0-------0---|
 -----9-------8-------9-------8-------9-------8-------9-------8-----|
 ---7-------7-------7-------7-------7-------7-------7-------7-------|
 -0-------0-------0-------0-------0-------0-------0-------0---------|
 ---------------------------------|
 ---------------------------------|
 -------0-------0-------0---------|
 -----9-------8-------9-------8---|
 ---7-------7-------7-------7-----|
 -0-------0-------0-------0-------|

1:28
 
 -------------------------------------------------------------------|
 -------------------------------------------------------------------|
 -------0-------0-------0-------0-------0-------0-------0-------0---|
 -----9-------8-------9-------8-------9-------8-------9-------8-----|
 ---7-------7-------7-------7-------7-------7-------7-------7-------|
 -0-------0-------0-------0-------0-------0-------0-------0---------|
 -------------------------------------------------------------------|
 -------------------------------------------------------------------|
 -------0-------0-------0-------0-------0-------0-------0-------0---|
 -----9-------8-------9-------8-------9-------8-------9-------8-----|
 ---7-------7-------7-------7-------7-------7-------7-------7-------|
 -0-------0-------0-------0-------0-------0-------0-------0---------|
 -------------------------------------------------------------------|
 -------------------------------------------------------------------|
 -------0-------0-------0-------0-------0-------0-------0-------0---|
 -----9-------8-------9-------8-------9-------8-------9-------8-----|
 ---7-------7-------7-------7-------7-------7-------7-------7-------|
 -0-------0-------0-------0-------0-------0-------0-------0---------|

2:16
 
 -------------------------------------------------------|
 -------------------------------------------------------|
 -------------------------------------------------------|
 -5------5------5------5-5-5-5-4-------4---4------------|
 -3------3------3------3-3-3-3-2-------2---2-0-5----4---|
 ----------------------------------------------3----2---|
 -------------------------------------------------------|
 -------------------------------------------------------|
 -------------------------------------------------------|
 -------------------------------------------------------|
 -------7-6-5---------------------7-6-5-----------------|
 -0---0-------7-6~--0-6-7~--0---0-------7-6~--0-6-5~----|
 -------------------------------------------------------|
 -------------------------------------------------------|
 -------------------------------------------------------|
 -5------5------5------5-5-5-5-4-------4---4------------|
 -3------3------3------3-3-3-3-2-------2---2-0-5----4---|
 ----------------------------------------------3----2---|
 --------------------------------------------------------|
 --------------------------------------------------------|
 --------------------------------------------------------|
 --------------------------------------------------------|
 -------7-6-5---------------------7-6-5------------------|
 -0---0-------7-6~--0-6-7~--0---0-------7-6~--0-6-5~---0-|

2:49
 
 -------------------------------------------------------------------|
 -------------------------------------------------------------------|
 -------0-------0-------0-------0-------0-------0-------0-------0---|
 -----9-------8-------9-------8-------9-------8-------9-------8-----|
 ---7-------7-------7-------7-------7-------7-------7-------7-------|
 -0-------0-------0-------0-------0-------0-------0-------0---------|
 -------------------------------------------------------------------|
 -------------------------------------------------------------------|
 -----------------------------------------0-------0-------0-------0-|
 -----5--------10-------5-------8-------9-------8-------9-------8---|
 ---7---7---/9----9---7---7---7---7---7-------7-------7-------7-----|
 -0-------0---------0-------0-------0-------0-------0-------0-------|
 -------------------------------------------------------------------|
 -------------------------------------------------------------------|
 -----------------------------------------0-------0-------0-------0-|
 -----5--------10-------5-------8-------9-------8-------9-------8---|
 ---7---7---/9----9---7---7---7---7---7-------7-------7-------7-----|
 -0-------0---------0-------0-------0-------0-------0-------0-------|
 -------------------------------------------------------------------|
 -------------------------------------------------------------------|
 -----------------------------------------0-------0-------0-------0-|
 -----5--------10-------5-------8-------9-------8-------9-------8---|
 ---7---7---/9----9---7---7---7---7---7-------7-------7-------7-----|
 -0-------0---------0-------0-------0-------0-------0-------0-------|
 -------------------------------------|
 -------------------------------------|
 -------------------------------------|
 -----5--------10-------5-------8-----|
 ---7---7---/9----9---7---7---7---7---|
 -0-------0---------0-------0---------|

4:03
 
 --------------------------------------------|
 --------------------------------------------|
 -----0-----------------------------6-7------|
 ---4---4-----5-----7----7----7-----4-5--7-6-|
 -3-------3---3-0-0-5----5----5-5-0------5\4-|
 --------------------------------------------|

* * * * ~
 
 --------------------------------------------|
 --------------------------------------------|
 -----0-----------------------------6-7------|
 ---4---4-----5-----7----7----7-----4-5-7-6--|
 -3-------3---3-0-0-5----5----5-5-0-----5-4--|
 --------------------------------------------|

* * * *
 
 -----------------------------------------|
 -----------------------------------------|
 -----0-----------------------------7-----|
 ---4---4-----5-----7----7----7--7--5--7--|
 -3-------3---3-0-0-5----5----5--5-----5--|
 -----------------------------------------|

* *
4:27
 
 ----------------------------------------------------------|
 ----------------------------------------------------------|
 ----------------------------------------------------------|
 --------9-12----------9-8----------9-12----------9-8------|
 --------7-10----------7-6----------7-10----------7-6------|
 -0--0-0--------0--0-0-------0--0-0--------0--0-0----------|

~ ~ ~ ~
 
 ----------------------------------------------------------|
 ----------------------------------------------------------|
 ----------------------------------------------------------|
 --------9-12----------9-8----------9-12----------9-8------|
 --------7-10----------7-6----------7-10----------7-6------|
 -0--0-0--------0--0-0-------0--0-0--------0--0-0----------|

~ ~ ~ ~
 
 ----------------------------------------------------------|
 ----------------------------------------------------------|
 ----------------------------------------------------------|
 --------9-12----------9-8----------9-12----------9-8------|
 --------7-10----------7-6----------7-10----------7-6------|
 -0--0-0--------0--0-0-------0--0-0--------0--0-0----------|

~ ~ ~ ~
 
 ----------------------------------------------------------|
 ----------------------------------------------------------|
 ----------------------------------------------------------|
 --------9-12----------9-8----------9-12----------9-8------|
 --------7-10----------7-6----------7-10----------7-6------|
 -0--0-0--------0--0-0-------0--0-0--------0--0-0----------|

~ ~ ~ ~
 
 ----------------------------------------------------------|
 ----------------------------------------------------------|
 ----------------------------------------------------------|
 --------9-12----------9-8----------9-12----------9-8------|
 --------7-10----------7-6----------7-10----------7-6------|
 -0--0-0--------0--0-0-------0--0-0--------0--0-0----------|

~ ~ ~ ~
 
 ----------------------------------------------------------|
 ----------------------------------------------------------|
 ----------------------------------------------------------|
 --------9-12----------9-8----------9-12----------9-8------|
 --------7-10----------7-6----------7-10----------7-6------|
 -0--0-0--------0--0-0-------0--0-0--------0--0-0----------|

~ ~ ~ ~
5:15
 
 -------------------------------------------------------|
 -------------------------------------------------------|
 -------------------------------------------------------|
 -5------5------5------5-5-5-5-4-------4---4------------|
 -3------3------3------3-3-3-3-2-------2---2-0-5----4---|
 ----------------------------------------------3----2---|
 -------------------------------------------------------|
 -------------------------------------------------------|
 -------------------------------------------------------|
 -------------------------------------------------------|
 -------7-6-5---------------------7-6-5-----------------|
 -0---0-------7-6~--0-6-7~--0---0-------7-6~--0-6-5~----|
 -------------------------------------------------------|
 -------------------------------------------------------|
 -------------------------------------------------------|
 -5------5------5------5-5-5-5-4-------4---4------------|
 -3------3------3------3-3-3-3-2-------2---2-0-5----4---|
 ----------------------------------------------3----2---|
 --------------------------------------------------------|
 --------------------------------------------------------|
 --------------------------------------------------------|
 --------------------------------------------------------|
 -------7-6-5---------------------7-6-5------------------|
 -0---0-------7-6~--0-6-7~--0---0-------7-6~--0-6-5~--0--|

5:48
 
 --------------------------------------------------------------------|
 --------------------------------------------------------------------|
 --------------------------------------------------------------------|
 -7-9-----------7-9---11--12--------7-9-----------7-9---11--12-----7-|
 -5-7-----------5-7----9--10--------5-7-----------5-7----9--10-----5-|
 --------------------------------------------------------------------|

~ ~
 
 -----------------------------------------------------------------------|
 -----------------------------------------------------------------------|
 -----------------------------------------------------------------------|
 -7-9-----------7-9---11--12--------7-9-----------7-9-------------------|
 -5-7-----------5-7----9--10--------5-7-----------5-7---8--7----5-------|
 -------------------------------------------------------6--5----3----0--|

~ |
6:19
 
 -------------------------------------------------------------------------|
 -------------------------------------------------------------------------|
 -------------------------------------------------------------------------|
 ------------5-----------------------------------5------------------------|
 ----7-5-7~----7-5----5------------------7-5-7~----7-5----5---------------|
 0-0---------------7~---7-6-5~-0-3-5-0-0---------------7~---7-6-5~-0-3-5-0|

[B]  
 
 -------------------------------------------------------------------------|
 -------------------------------------------------------------------------|
 -------------------------------------------------------------------------|
 ------------5-----------------------------------5------------------------|
 ----7-5-7~----7-5----5------------------7-5-7~----7-5----5---------------|
 0-0---------------7~---7-6-5~-0-3-5-0-0---------------7~---7-6-5~-0-3-5-0|

6:35
 
 ------------------------------------------------------------------|
 ------------------------------------------------------------------|
 ------------------------------------------------------------------|
 ------------------------------------------------------------------|
 -----5-------5------5-------7-8-------5-------5------5-------8-7--|
 -0-0-3---0-0-3--0-0-3---0-0-5/6---0-0-3---0-0-3--0-0-3---0-0-6\5--|

* * * * * * * * * * * * * * * *
 
 ------------------------------------------------------------------|
 ------------------------------------------------------------------|
 ------------------------------------------------------------------|
 ------------------------------------------------------------------|
 -----5-------5------5-------7-8-------5-------5------5-------8-7--|
 -0-0-3---0-0-3--0-0-3---0-0-5/6---0-0-3---0-0-3--0-0-3---0-0-6\5--|

* * * * * * * * * * * * * * * *
 
 ------------------------------------------------------------------|
 ------------------------------------------------------------------|
 ------------------------------------------------------------------|
 ------------------------------------------------------------------|
 -----5-------5------5-------7-8-------5-------5------5-------8-7--|
 -0-0-3---0-0-3--0-0-3---0-0-5/6---0-0-3---0-0-3--0-0-3---0-0-6\5--|

* * * * * * * * * * * * * * * *
 
 ------------------------------------------------------------------|
 ------------------------------------------------------------------|
 ------------------------------------------------------------------|
 ------------------------------------------------------------------|
 -----5-------5------5-------7-8-------5-------5------5-------8-7--|
 -0-0-3---0-0-3--0-0-3---0-0-5/6---0-0-3---0-0-3--0-0-3---0-0-6\5--|

* * * * * * * * * * * * * * * *
7:06
 
 ------------------------------------------------------------------------|
 ------------------------------------------------------------------------|
 ------------------------------------------------------------------------|
 ------------5-----------------------------------5-----------------------|
 ----7-5-7~----7-5----5------------------7-5-7~----7-5----5--------------|
 0-0---------------7~---7-6-5~-0-3-5-0-0---------------7~---7-6-5~-0-3-5-|
 ------------------------------------------------------------------------|
 ------------------------------------------------------------------------|
 ------------------------------------------------------------------------|
 ------------5-----------------------------------5-----------------------|
 ----7-5-7~----7-5----5------------------7-5-7~----7-5----5--------------|
 0-0---------------7~---7-6-5~-0-3-5-0-0---------------7~---7-6-5~-0-3-5-|

7:22
 
 -----------------------------------------------------------------------|
 -----------------------------------------------------------------------|
 -----------------------------------------------------------------------|
 -9----11--12----12-14--7----7--9------9----11--12----12-14--7-----7--9-|
 -7-----9--10----10-12--5----5--7------7-----9--10----10-12--5-----5--7-|
 -----------------------------------------------------------------------|

~ ~ ~ ~
SOLO
PREVIOUS RIFF REPEATS DURING SOLO
7:38
 
 ---------------------------------------------------------|
 -------------15-12~--\------)----)----)------------------|
 -----11--12---------------14---14---14---12--14--12------|
 -14-------------------------------------------------14~--|
 ---------------------------------------------------------|
 ---------------------------------------------------------|

| | | | | |
7:46
 
 ----------------------------------------------__--------------------------|
 -15-15----15-15-13------------)--------------/ \-------------------------|
 /16-----16---16\14-14-12-14-14--14--12~----11-12-11----------12-----------|
 ---------------------------------------------------12--12-12----14-14--14~|
 -----------------------------------------------------14-------------------|
 --------------------------------------------------------------------------|

| | | |
7:54
 
 ------------------------------------------------------------------------|
 ------------------------------------------------------------------------|
 ------------------------------------------------------------------------|
 ------------5-----------------------------------5-----------------------|
 ----7-5-7~----7-5----5------------------7-5-7~----7-5----5--------------|
 0-0---------------7~---7-6-5~-0-3-5-0-0---------------7~---7-6-5~-0-3-5-|
 -------------------------------------------------------------------------|
 -------------------------------------------------------------------------|
 -------------------------------------------------------------------------|
 ------------5-----------------------------------5------------------------|
 ----7-5-7~----7-5----5------------------7-5-7~----7-5----5---------------|
 0-0---------------7~---7-6-5~-0-3-5-0-0---------------7~---7-6-5~-0-3-5-0|

8:10
 
 -------------------------------------------------------|
 -------------------------------------------------------|
 -------------------------------------------------------|
 -5------5------5------5-5-5-5-4-------4---4------------|
 -3------3------3------3-3-3-3-2-------2---2-0-5----4---|
 ----------------------------------------------3----2---|
 -------------------------------------------------------|
 -------------------------------------------------------|
 -------------------------------------------------------|
 -------------------------------------------------------|
 -------7-6-5---------------------7-6-5-----------------|
 -0---0-------7-6~--0-6-7~--0---0-------7-6~--0-6-5~----|
 -------------------------------------------------------|
 -------------------------------------------------------|
 -------------------------------------------------------|
 -5------5------5------5-5-5-5-4-------4---4------------|
 -3------3------3------3-3-3-3-2-------2---2-0-5----4---|
 ----------------------------------------------3----2---|
 -------------------------------------------------------|
 -------------------------------------------------------|
 -------------------------------------------------------|
 -------------------------------------------------------|
 -------7-6-5---------------------7-6-5-----------------|
 -0---0-------7-6~--0-6-7~--0---0-------7-6~--0-6-5~----|
 ------------------------------------------------------|
 ------------------------------------------------------|
 ------------------------------------------------------|
 ------------------------------------------------------|
 -------7-6-5---------------------7-6-5---------8-7----|
 -0---0-------7-6~--0-6-7~--0---0-------7-6~--0-6-5----|


Important: The song above is NOT stored on the Chordie server. The original song is hosted at www.guitaretab.com. Chordie works as a search engine and provides on-the-fly formatting. Chordie does not index songs against artists'/composers' will. To remove this song please click here.

Text color:
Chord color:
Chord grids: 
Font size:    
Page size: 

Ab B Bb Db Eb Gb
Rate #3 of 3 versions

Jango Player

Login - add to songbook

SHARE PAGE  



You need to log in to post comments