Guitar Tabs, Chords and Lyrics
Major upgrade!! After one year development the new version of Chordie is now online! Please give feedback.


Damaged Soul   Black Sabbath

 
 --------------------------------------|
 --------------------------------------|
 --------------------------------------|
 ---------5~---^----------_------------|
 -----5/7-----7-5---5~---/ \-----------|
 -0---------------7-----7-5-0-3--3--3--|
 --------------------------------)-------------|
 ------------------------------10--8-10--------|
 ---------------------------------------9~-----|
 ---------5~---^-----------5-------------------|
 -----5/7-----7-5---5~-------------------------|
 -0---------------7------7---------------------|

 


 *


 


 

 
 --------------------------------------|
 --------------------------------------|
 --------------------------------------|
 ---------5~---^----------_------------|
 -----5/7-----7-5---5~---/ \-----------|
 -0---------------7-----7-5-0-3--3--3--|
 --------------------------------)-------------|
 ------------------------------10--8~----------|
 ----------------------------------------------|
 ---------5~---^-----------5-------------------|
 -----5/7-----7-5---5~-------------------------|
 -0---------------7------7---------------------|

 


 *


 


 


 0:35


 


 NECK PU TO EMULATE TONE


 


 

 
 ---------------------------------------------------------------|
 ---------------------------------------------------------------|
 --------4-------------------------4----------------------------|
 --------5\------------------------5\-------5----9--7----12-----|
 -----------------5----7--------------------3----7--5----10-----|
 -0---0--------0--3----5----0---0--------0----------------------|
 ---------------------------------------------------------------|
 ---------------------------------------------------------------|
 --------4-------------------------4----------------------------|
 --------5\------------------------5\-------5----9--7----7------|
 -----------------5----7--------------------3----7--5----5------|
 -0---0--------0--3----5----0---0--------0----------------------|
 ---------------------------------------------------------------|
 ---------------------------------------------------------------|
 --------4-------------------------4----------------------------|
 --------5\------------------------5\-------5----9--7----12-----|
 -----------------5----7--------------------3----7--5----10-----|
 -0---0--------0--3----5----0---0--------0----------------------|
 ---------------------------------------------------------------|
 ---------------------------------------------------------------|
 --------4-------------------------4----------------------------|
 --------5\------------------------5\-------5----9--7----7------|
 -----------------5----7--------------------3----7--5----5------|
 -0---0--------0--3----5----0---0--------0----------------------|
 ---------------------------------------------------------------|
 ---------------------------------------------------------------|
 --------4-------------------------4----------------------------|
 --------5\------------------------5\-------5----9--7----12-----|
 -----------------5----7--------------------3----7--5----10-----|
 -0---0--------0--3----5----0---0--------0----------------------|

 


 


 


 


 1:28


 


 

 
 --------------------------------------------------------------------|
 --------------------------------------------------------------------|
 --------------------------------------------------------------------|
 ------------------------------------------------------/9-7~---------|
 -----/7-5~---/10-7~------------------/7-5~---/10-7~----------10-----|
 -0---------------------/7-5~--3--0----------------------------------|
 --------------------------------------------------------------------|
 --------------------------------------------------------------------|
 --------------------------------------------------------------------|
 ------------------------------------------------------/9-7~---------|
 -----/7-5~---/10-7~------------------/7-5~---/10-7~----------10-----|
 -0---------------------/7-5~--3--0----------------------------------|

 


 


 


 


 1:50


 


 

 
 ---------------------------------------------------------------|
 ---------------------------------------------------------------|
 --------4-------------------------4----------------------------|
 --------5\------------------------5\-------5----9--7----7------|
 -----------------5----7--------------------3----7--5----5------|
 -0---0--------0--3----5----0---0--------0----------------------|
 ---------------------------------------------------------------|
 ---------------------------------------------------------------|
 --------4-------------------------4----------------------------|
 --------5\------------------------5\-------5----9--7----12-----|
 -----------------5----7--------------------3----7--5----10-----|
 -0---0--------0--3----5----0---0--------0----------------------|
 ---------------------------------------------------------------|
 ---------------------------------------------------------------|
 --------4-------------------------4----------------------------|
 --------5\------------------------5\-------5----9--7----12-----|
 -----------------5----7--------------------3----7--5----10-----|
 -0---0--------0--3----5----0---0--------0----------------------|
 ---------------------------------------------------------------|
 ---------------------------------------------------------------|
 --------4-------------------------4----------------------------|
 --------5\------------------------5\-------5----9--7----12-----|
 -----------------5----7--------------------3----7--5----10-----|
 -0---0--------0--3----5----0---0--------0----------------------|

 


 


 


 


 2:45


 


 


 

 
 --------------------------------------------------------------------|
 --------------------------------------------------------------------|
 --------------------------------------------------------------------|
 ------------------------------------------------------/9-7~---------|
 -----/7-5~---/10-7~------------------/7-5~---/10-7~----------10-----|
 -0---------------------/7-5~--3--0----------------------------------|
 --------------------------------------------------------------------|
 --------------------------------------------------------------------|
 --------------------------------------------------------------------|
 ------------------------------------------------------/9-7~---------|
 -----/7-5~---/10-7~------------------/7-5~---/10-7~----------10-----|
 -0---------------------/7-5~--3--0----------------------------------|

 


 


 


 


 3:05


 


 

 
 -------------------------------------------------------|
 -------------------------------------------------------|
 -------5---5-------5-------------5---5-------5---------|
 -----7---5---7-------7--^------7---5---7-------7--^----|
 -0---------------------5-0-0---------------------5-0---|
 -------------------------------------------------------|
 -------------------------------------------------------|
 -------------------------------------------------------|
 -------5---5-------5-------------5---5-------5---------|
 -----7---5---7-------7--^------7---5---7-------7--^----|
 -0---------------------5-0-0---------------------5-0---|
 -------------------------------------------------------|
 -------------------------------------------------------|
 -------------------------------------------------------|
 -------5---5-------5-------------5---5-------5---------|
 -----7---5---7-------7--^------7---5---7-------7--^----|
 -0---------------------5-0-0---------------------5-0---|
 -------------------------------------------------------|
 -------------------------------------------------|
 -------------------------------------------------|
 -------5---5-------5-------------5---5-----------|
 -----7---5---7-------7--^------7---5----7--9--9--|
 -0---------------------5-0-0------------5--7--7--|
 -------------------------------------------------|

 


 


 


 


 


 3:27


 


 

 
 --------------------------------------|
 --------------------------------------|
 --------------------------------------|
 ---------5~---^----------_------------|
 -----5/7-----7-5---5~---/ \-----------|
 -0---------------7-----7-5-0-3--3--3--|
 --------------------------------)-------------|
 ------------------------------10--8-10--------|
 ---------------------------------------9~-----|
 ---------5~---^-----------5-------------------|
 -----5/7-----7-5---5~-------------------------|
 -0---------------7------7---------------------|

 


 *


 


 

 
 --------------------------------------|
 --------------------------------------|
 --------------------------------------|
 ---------5~---^----------_------------|
 -----5/7-----7-5---5~---/ \-----------|
 -0---------------7-----7-5-0-3--3--3--|
 --------------------------------)-------------|
 ------------------------------10--8-10--------|
 ---------------------------------------9~-----|
 ---------5~---^-----------5-------------------|
 -----5/7-----7-5---5~-------------------------|
 -0---------------7------7---------------------|

 


 *


 


 


 


 3:48


 


 SOLO


 


 ~~~~~~~~___ _____


 

 
 ---)-------|-(-------------------/ \---------------|
 ------------------15----12~-------------12-----12~~\---|
 -------------------------------------------------------|
 -------------------------------------------------------|
 -------------------------------------------------------|

 


 |


 


 


 

 
 ------------------------------------------------------------|
 ------------------------------------------------------------|
 ---------------------__--------------------------__---------|
 -/14-12-14-12~~-----/ \-------------------12---/ \--------|
 -----------------/12-14-12~~----10--9--10------9-10\7~~~~~\-|
 ------------------------------------------------------------|

 


 | | |


 


 


 4:02


 


 


 

 
 --------------12------)-12--^-----)-12--^-----)-12--^-----)-12--^-----)--|
 -----------12----12-15----15-12-15----15-12-15----15-12-15----15-12-15---|
 -12-12-------------------------------------------------------------------|
 /12-12\------------------------------------------------------------------|
 -------------------------------------------------------------------------|
 -------------------------------------------------------------------------|

 


 


 __ ___~~~


 ^ / \ )


 

 
 -12---^-------15-12----12-15-12----12---^---12-15-17-------|
 ----15-12-15--------15----------15----12-15----------------|
 -----------------------------------------------------------|
 -----------------------------------------------------------|
 -----------------------------------------------------------|
 -----------------------------------------------------------|

 


 


 ____ ~~~~~~


 | ( ) __ ) __ ) )


 

 
 -17---15-----17---|-(----17---|-(----15-17--17--------|
 ---------17------17---15-----17---15------------------|
 ------------------------------------------------------|
 ------------------------------------------------------|
 ------------------------------------------------------|
 ------------------------------------------------------|

 


 


 _____ __ __


 | ( / \ / \


 

 
 -17--------15------14------15--12-14-12-----15--12-14-12-----|
 -------17------17------15---------------15---------------15--|
 -------------------------------------------------------------|
 -------------------------------------------------------------|
 -------------------------------------------------------------|
 -------------------------------------------------------------|

 


 | | | | | | | |


 


 


 __ __


 / \ / \ ~~~~~~


 

 
 -15--12-14-12-----15--12-14-12----12---------------------------)-----^---|
 --------------15---------------15-------------12-13-15/17-12-15-------12-|
 ----------------------------------------12-14----------------------------|
 --------------------------------------14---------------------------------|
 -------------------------------------------------------------------------|
 -------------------------------------------------------------------------|

 


 


 


 __ __


 ) ) |( ) |(


 

 
 -15---15--12--15--15--12--15--15--12----)--__-------)-----------|
 --------------------------------------15---| (----15----^-------|
 ------------------------------------------14---12-----15-12~~~--|
 ----------------------------------------------------------------|
 ----------------------------------------------------------------|
 ----------------------------------------------------------------|
 -------------------------------------------------------------------|
 -------__---------------------------------------------------__-----|
 ------/ \------------^-------------12-------------12------/ \----|
 /14-12-14-12~~------12-14-12~~--/14----14-12~~-/14----14-12-14-12~~|
 -----------------/14-----------------------------------------------|
 -------------------------------------------------------------------|
 ----------------------------|
 ----------------------------|
 ----------------------------|
 -----12-14------------------|
 -/14-------12~~~~\----------|
 ----------------------------|

 


 


 


 


 4:32


 


 

 
 ----------------------------------------------------------|
 ----------------------------------------------------------|
 --------4--------------------------4----------------------|
 --------5\-------------------------5\---------------------|
 ---------------5--7--8--7----------------5--7--8--7-------|
 -0---[0]-------3--5--6--5---0---0--------3--5--6--5-------|

 


 ~


 


 

 
 ------------------------------------------------------------|
 ------------------------------------------------------------|
 --------4----------------------------4----------------------|
 --------5\---------------------------5\---------------------|
 ---------------5--7--8--7--5---------------5--7--8--7-------|
 -0---0---------3--5--6--5--3--0---0--------3--5--6--5-------|
 ------------------------------------------------------------|
 ------------------------------------------------------------|
 --------4---------------------------4-----------------------|
 --------5\--------------------------5\-----------------5----|
 ---------------5--7--8--7--5---------------5--7--8--7--5----|
 -0---0---------3--5--6--5--3--0---0--------3--5--6--5--3----|
 ------------------------------------------------------------|
 ------------------------------------------------------------|
 --------4---------------------------4-----------------------|
 --------5\--------------------------5\------------------5---|
 ---------------5--7--8--7--5----------------5--7--8--7--5---|
 -0---0------0--3--5--6--5--3--0---0------0--3--5--6--5--3---|
 ------------------------------------------------------------|
 ------------------------------------------------------------|
 --------4---------------------------4-----------------------|
 --------5\--------------------------5\----------------------|
 ---------------5--7--8--7--5----------------5--7--8--7--5---|
 -0---0------0--3--5--6--5--3--0---0------0--3--5--6--5--3---|

 


 


 


 5:25


 


 SOLO


 


 

 
 ---)---------------------------------------|
 -12---------------------) (^-----^---------|
 -12-------------------14----12-14-12-------|
 -----14--14--14~~--------------------14~~--|
 -------------------------------------------|
 -------------------------------------------|

 


 | |


 


 


 

 
 ---)------------------------------------------------------------------------|
 -12------------------------------------------------------------PH-----------|
 -12------------^-----------------------------------------------12-----------|
 -----14-14-14~~-12---12-12~~\------12~----------------^---------------------|
 -------------------14-----------/14----12\10-12-12--12-10-12-10---10-10\7-7~|
 ----------------------------------------------------------------------------|

 


 | | | | | |


 


 


 ~~~~~~~~~ )


 

 
 ---)---15------)----------18--------15-12-14----12----------12------------|
 -15-------15-15------------------------------15----15-12-12----12-12------|
 ------------------------------------------------------------------12------|
 --------------------------------------------------------------------------|
 --------------------------------------------------------------------------|
 --------------------------------------------------------------------------|

 


 |


 


 


 

 
 ---)-^-----------------------------------------__--------------------|
 -15---12--------------------------------------/ \-------------------|
 ---------14-1212~------------------------14~12-14-12-12--------------|
 ------------------14-12----14-12~~\----X---------------14-12--14-12~~|
 ------------------------14-----------/X---------------------14-------|
 ---------------------------------------------------------------------|
 -------------------------------------------------------|
 -------------------------------------------------------|
 ----__-------------__________----------------)---------|
 ---/ \-----)-----/ \------------5------------|
 -14-12-10-12----12-14-12-10\9-10~~\----/7--------------|
 -------------------------------------------------------|

 


 


 


 


 6:10


 


 

 
 --------------------------------------|
 --------------------------------------|
 --------------------------------------|
 ----------5--5---^---------_----------|
 ------5/7-------7-5---5---/ \---------|
 -0--0---------------7----7-5-0-3--3---|
 ---------------------------------)-------|
 -------------------------------10--8-----|
 -------------------------------------9~~-|
 ----------5--5---^-----------------------|
 ------5/7-------7-5---5------------------|
 -0--0---------------7----7-0-------------|
 --------------------------------------|
 --------------------------------------|
 --------------------------------------|
 ----------5--5---^---------_----------|
 ------5/7-------7-5---5---/ \---------|
 -0--0---------------7----7-5-0-3--3---|
 ---------------------------------)-------|
 -------------------------------10--8-----|
 -------------------------------------9~~-|
 ----------5--5---^-----------------------|
 ------5/7-------7-5---5------------------|
 -0--0---------------7----7-0-------------|
 --------------------------------------|
 --------------------------------------|
 --------------------------------------|
 ------- --5--5---^---------_----------|
 ------5-7-------7-5---5---/ \--5--5---|
 -0--0---------------7----7-5-0-3--3---|
 -----------------------------------------|
 -----------------------------------------|
 -------------------------------)---------|
 ----------5--5---^------------7--5-------|
 ------5-7-------7-5---5----5-------7-----|
 -0--0---------------7----7---------------|
 ---------------------------------------|
 ---------------------------------------|
 ---------------------------------------|
 ----------5--5---^----------_----------|
 ------5-7-------7-5----5---/ \--5--5---|
 -0--0----------------7----7-5-0-3--3---|
 ----------------------------------------|
 ----------------------------------------|
 -------------------------------)--------|
 ----------5--5---^------------7--5------|
 ------5-7-------7-5---5----5--------5---|
 -0--0---------------7----7--------------|

 


 


 


 


 6:35


 


 SOLO


 


 

 
 --____________~~~---____------------__--------------------------------------|
 --)--|---|---|------/ \----------/ \------------------------------------|
 14--14--14--14----12-14-12\11-12--11-12-11---11-----------------12-12----^--|
 ------------------------------------------14---12---14-12~~~~12-------14~~12|
 -------------------------------------------------14-------------------------|
 ----------------------------------------------------------------------------|

 


 | | |


 


 


 

 
 -15-12----12-14----12--------------------------------------------------|
 -------14-------15----14-15-12-14----12--------------------------------|
 ----------------------------------15----15-14-12----14-12--------------|
 -------------------------------------------------14-------14-12-13-14--|
 -----------------------------------------------------------------------|
 -----------------------------------------------------------------------|
 --------------------------------------------------------------------|
 --------------------------------------------------------------------|
 -12-------------------------------------------------14-14-----------|
 ----14-12----14-12----12----------------------12-14-------14-12~----|
 ----------14-------14----14-13-12----12-13-14--------------------10-|
 ----------------------------------15--------------------------------|
 ---------------------------------------------------------------------------|
 ---)-12-15----12---------^-------------------------------------------------|
 -14--------15----15-14-12-14----14-12~---14-12~---14-12~14-14-12~---12~~~--|
 -----------------------------14-------14-------14----------------14--------|
 ---------------------------------------------------------------------------|
 ---------------------------------------------------------------------------|

 


 


 


 ______


 ) | ( ~~~~


 

 
 -------12-15---15---12----12---)-----|
 -----------------------15----15------|
 -12-14-------------------------------|
 -------------------------------------|
 -------------------------------------|
 -------------------------------------|

 


 


 __ __ __ __


 / \ ^ / \ / \ / \


 

 
 12-15-12----15-12----12-15-12----12-15-12---12-15-12-----------|
 ---------15-------15----------15----------15---------15-12-----|
 ---------------------------------------------------------------|
 ---------------------------------------------------------------|
 ---------------------------------------------------------------|
 ---------------------------------------------------------------|

 


 


 ^ ^ __


 

 
 -15-12---12-15-12---------------12------/ \-----|
 -------15---------15-12-15-12-15---15-12-14-15---|
 -------------------------------------------------|
 -------------------------------------------------|
 -------------------------------------------------|
 -------------------------------------------------|
 ---^---------------------------------------________--------------------|
 -15-12----12-15-12-15-12----14-12-14-12---/ \-------------------|
 -------15----------------15-------------12\11-12-14-12---^-----^-------|
 -------------------------------------------------------14-12-14-12-----|
 -------------------------------------------------------------------14--|
 -----------------------------------------------------------------------|

 


 


 


 ) ~~~~~


 

 
 -------------------__-------14----------------------15--------|
 ----------__------/ \---16-----------------------------------|
 ---^-----/ \---12-12-14--------------------------------------|
 -12-14-12-13-14-----------------------------------------------|
 --------------------------------------------------------------|
 ---------------------------------|
 -15-12----12---------------------|
 -------15----15-14-12---14-12~~--|
 ----------------------14---------|
 ---------------------------------|
 ---------------------------------|
 -------------------------------------------------------------------|
 -------------------------------------------------------------------|
 ----12----------------------------------______________-----------X-|
 /14----14-12----14-12----12------------/ \----------X-|
 -------------14-------14----14-12-13-10-12-13-12-10-12-10-12-10/---|
 -------------------------------------------------------------------|

 


 


 


 ~~~~ ~~~


 

 
 --------------------------------____------------------)---12--------)--)--|
 --____________________-----__--/ \----/\---12-12-15------15-12-15-15---|
 -/ \---/ \79797979/141214-----------------------------|
 575757575757575757575757/979797-------------------------------------------|
 --------------------------------------------------------------------------|
 --------------------------------------------------------------------------|

 


 | |


 


 __ __ __ __ __


 / \ / \ / \ / \ / \


 

 
 -12-15-12----12----12-15-12--12-15-12--12-15-12--12-15-12----|
 ----------15----15---------15--------15--------15--------15--|
 -------------------------------------------------------------|
 -------------------------------------------------------------|
 -------------------------------------------------------------|
 -------------------------------------------------------------|

 


 |


 __ __ __


 / \ / \ / \ __ _____


 

 
 -12-15-12--12-15-12--12-15-12--12-------12--/ \--12-----/ \---|
 ---------15--------15--------15---14-15---15-14-15--15-12-14-15-12-|
 -------------------------------------------------------------------|
 -------------------------------------------------------------------|
 -------------------------------------------------------------------|
 -------------------------------------------------------------------|

 


 


 _____ _____ _____


 

 
 --^------/ \-----^------/ \-----^------/ \------------------|
 15-12--12-14-15-12-15-12--12-14-15-12-15-12--12-14-15-12-15-12--12-15-12|
 -----15-----------------15-----------------15-----------------15--------|
 ------------------------------------------------------------------------|
 ------------------------------------------------------------------------|
 ------------------------------------------------------------------------|

 


 


 ~~~~~~~~~~~~~_____


 

 
 ---)------------|----(--)----)---__-----------|
 -15------------15----------15---|--(----------|
 -------------------------------14----12~~~~~~-|
 ----------------------------------------------|
 ----------------------------------------------|
 ----------------------------------------------|
 ------------------------------------------------------------------------|
 ------------------------------------------------------------------------|
 ---------------)()(--------------------)()(-----------------------------|
 -14-12-14-14-12-----\-------12----14-12---------12----------------------|
 ------------------------/14----14------------14----14-13-12-10-12-12-10-|
 ------------------------------------------------------------------------|

 


 


 


 7:35


 


 


 

 
 --------------------------------------|
 --------------------------------------|
 --------------------------------------|
 ----------5--5---^---------_----------|
 ------5-7-------7-5---5---/ \--5--5---|
 -0--0---------------7----7-5-0-3--3---|
 -----------------------------------------|
 -----------------------------------------|
 -------------------------------)---------|
 ----------5--5---^------------7--5-------|
 ------5-7-------7-5---5----5-------7-----|
 -0--0---------------7----7---------------|
 --------------------------------------|
 --------------------------------------|
 --------------------------------------|
 ----------5--5---^---------_----------|
 ------5-7-------7-5---5---/ \--5--5---|
 -0--0---------------7----7-5-0-3--3---|
 ----------------------------------------|
 ----------------------------------------|
 ----------------------------------------|
 ----------5--5---^------------)---------|
 ------5-7-------7-5---5----5-7--5---7---|
 -0--0---------------7----7--------7-----|


Important: The song above is NOT stored on the Chordie server. The original song is hosted at www.guitaretab.com. Chordie works as a search engine and provides on-the-fly formatting. Chordie does not index songs against artists'/composers' will. To remove this song please click here.

This song is displayed as text-only. Transposing and tuning is only available for chordpro-songs.
Rate #1 of 2 versions

Jango Player

Login - add to songbook

SHARE PAGE  




You need to log in to post comments