Guitar Tabs, Chords and Lyrics
Server problems seems to be fixed. Chordie has been experiencing problems with songs disappearing. These issues now seems to be fixed, but still verifying the fix. If you find anything strange, please email admin@chordie.com.


In the End  Black Veil Brides

 
 ----------------------------------------------------------------------------

In The End
Black Veil Brides
 
 ----------------------------------------------------------------------------

Woah. BVB really surprised me with this one. I find this to be their most catchy
song. The guitar work is amazing, and as always, it is pretty challenging. Enjoy!
Username: dkm817 (same on X box live)
Youtube Cover: http://www.youtube.com/watch?v=m1u9IGYcm_w
Email: guitardrums@rockfan.com
Guitar 1 Rhythmic (C# G# C# F# A# D#)
Guitar 2 Lead (C# G# C# F# A# D#)
Guitar 3 Mized (C# G# C# F# A# D#)
NOTE: This was exported off of guitar pro.
Guitar 1
W W W
 
 D#||-------------------|-------------------|-------------------|
 A#||-------------------|-------------------|-------------------|
 F#||-------------------|-------------------|--2----------------|
 C#||--4----------------|--0----------------|-------------------|
 G#||-------------------|-------------------|-------------------|
 C#||-------------------|-------------------|-------------------|

PM PM PM PM PM PM PM PM PM PM PM PM PM PM PM PM
W E E E E E E E E E E E E E E E E
 
 -------------------|--------------------------|--------------------------|
 -------------------|--------------------------|--------------------------|
 -------------------|--------------------------|--7--7--7--7--7--7--7--7--|
 --2----------------|--4--4--4--4--4--4--4--4--|--7--7--7--7--7--7--7--7--|
 -------------------|--4--4--4--4--4--4--4--4--|--5--5--5--5--5--5--5--5--|
 -------------------|--4--4--4--4--4--4--4--4--|--------------------------|

PM PM PM PM PM PM PM PM PM PM PM PM
[E] [E] [E] [E] [E] [E] [E] [E] [E] [E] [E] [E] [E] [E] [E] [E]  
 
 --------------------------|--------------------------|
 --------------------------|--------------------------|
 --------------------------|--------------------------|
 --7--7--7--7--7--7--7--7--|--2--2--2--2--2--2--2--2--|
 --7--7--7--7--7--7--7--7--|--2--2--2--2--2--2--2--2--|
 --7--7--7--7--7--7--7--7--|--2--2--2--2--2--2--2--2--|

E S E S E E E E E H H E S E S E E E E E
 
 ---------------------------|--------------------|---------------------------|
 ---------------------------|--------------------|---------------------------|
 ---------------------------|--------------------|---------------------------|
 --4----4----2--4-----------|-----------2--------|--4----4----2--4-----------|
 --4----4----2--4-----------|-----------2--------|--4----4----2--4-----------|
 --4----4----2--4-----------|-----------2--------|--4----4----2--4-----------|

PM PM PM PM PM PM PM PM PM PM PM PM PM PM PM PM
[B] [B] [E] [E] [E] [E] [E] [E] [E] [E] [E] [E] [E] [E] [E] [E] [E] [E]  
 
 --------------------|--------------------------|--------------------------|
 --------------------|--------------------------|--------------------------|
 --7--------9--------|--------------------------|--------------------------|
 --7--------9--------|--4--4--4--4--4--4--4--4--|--7--7--7--7--7--7--7--7--|
 --5--------7--------|--4--4--4--4--4--4--4--4--|--7--7--7--7--7--7--7--7--|
 --------------------|--4--4--4--4--4--4--4--4--|--7--7--7--7--7--7--7--7--|

PM PM PM PM PM PM PM PM PM PM PM PM PM PM PM PM
[E] [E] [E] [E] [E] [E] [E] [E] [E] [E] [E] [E] [E] [E] [E] [E]  
 
 --------------------------|--------------------------|
 --------------------------|--------------------------|
 --------------------------|--------------------------|
 --6--6--6--6--6--6--6--6--|--5--5--5--5--5--5--5--5--|
 --6--6--6--6--6--6--6--6--|--5--5--5--5--5--5--5--5--|
 --6--6--6--6--6--6--6--6--|--5--5--5--5--5--5--5--5--|

PM PM PM PM PM PM PM PM PM PM PM PM PM PM PM PM
[E] [E] [E] [E] [E] [E] [E] [E] [E] [E] [E] [E] [E] [E] [E] [E]  
 
 --------------------------|--------------------------|
 --------------------------|--------------------------|
 --------------------------|--------------------------|
 --4--4--4--4--4--4--4--4--|--7--7--7--7--7--7--7--7--|
 --4--4--4--4--4--4--4--4--|--7--7--7--7--7--7--7--7--|
 --4--4--4--4--4--4--4--4--|--7--7--7--7--7--7--7--7--|

PM PM PM PM PM PM PM PM PM PM PM PM PM
[E] [E] [E] [E] [E] [E] [E] [E] [E] [E] [E] [E] [E] [E] [E] [E]  
 
 --------------------------|--------------------------|
 --------------------------|--------------------------|
 --------------------------|--------------------------|
 --6--6--6--6--6--6--6--6--|--5--5--5--5--5--5--4-----|
 --6--6--6--6--6--6--6--6--|--5--5--5--5--5--5--4-----|
 --6--6--6--6--6--6--6--6--|--5--5--5--5--5--5--4-----|

PM PM PM PM PM PM PM PM PM PM
[E] [E] [E] [E] [E] [E] [E] [E] [E] [E] [E] [E] [E] [E] [E] [E]  
 
 --------------------------|--------------------------|
 --------------------------|--------------------------|
 --------------------------|--------------------------|
 --------------------------|--------------------------|
 --------4--------5-----4--|--------4--------5-----4--|
 --4--4-----4--4-----4-----|--7--7-----7--7-----7-----|

PM PM PM PM PM
E E E E E E E E E E E E E E E E Q E E E E E E
 
 --------------------------|--------------------------|-------------------------|
 --------------------------|--------------------------|-------------------------|
 --------------------------|--------------------------|-------------------------|
 --------------------------|--------------------------|-------------------------|
 --------4--------5-----4--|--------------------------|-------4--------5-----4--|
 --6--6-----6--6-----6-----|--5--5--5--5--5--5--5--5--|--4-------4--4-----4-----|

PH
Q E E E E E E Q E E E E E E Q E E Q Q
 
 -------------------------|-------------------------|--------------------------|
 -------------------------|-------------------------|--------------------------|
 -------------------------|-------------------------|--------------------------|
 -------------------------|-------------------------|--------------------------|
 -------7--------9-----7--|-------7--------9-----7--|--------------------------|
 --7-------7--7-----7-----|--6-------6--6-----6-----|--9----7--6--7----6~----|

[E] [E] [E] [E] [E] [E] [E] [E] [E] [E] [E] [E] [E] [E] [E] [E]  
 
 -------|--------------------------|--------------------------|
 -------|--------------------------|--------------------------|
 -------|--------------------------|--7--7--7--7--7--7--7--7--|
 -------|--4--4--4--4--4--4--4--4--|--7--7--7--7--7--7--7--7--|
 -------|--4--4--4--4--4--4--4--4--|--5--5--5--5--5--5--5--5--|
 -------|--4--4--4--4--4--4--4--4--|--------------------------|

[E] [E] [E] [E] [E] [E] [E] [E] [E] [E] [E] [E] [E] [E] [E] [E]  
 
 --------------------------|--------------------------|
 --------------------------|--------------------------|
 --------------------------|--------------------------|
 --7--7--7--7--7--7--7--7--|--9--9--9--9--9--9--9--9--|
 --7--7--7--7--7--7--7--7--|--6--6--6--6--6--6--6--6--|
 --7--7--7--7--7--7--7--7--|--6--6--6--6--6--6--6--6--|

[E] [E] [E] [E] [E] [E] [E] [E] [E] [E] [E] [E] [E] [E] [E] [E]  
 
 --------------------------|--------------------------|
 --------------------------|--------------------------|
 --------------------------|--7--7--7--7--7--7--7--7--|
 --4--4--4--4--4--4--4--4--|--7--7--7--7--7--7--7--7--|
 --4--4--4--4--4--4--4--4--|--5--5--5--5--5--5--5--5--|
 --4--4--4--4--4--4--4--4--|--------------------------|

[E] [E] [E] [E] [E] [E] [E] [E] [E] [E] [E] [E] [E] [E] [E] [E]  
 
 --------------------------|--------------------------|
 --------------------------|--------------------------|
 --------------------------|--------------------------|
 --7--7--7--7--7--7--7--7--|--9--9--9--9--9--9--9--9--|
 --7--7--7--7--7--7--7--7--|--6--6--6--6--6--6--6--6--|
 --7--7--7--7--7--7--7--7--|--6--6--6--6--6--6--6--6--|

[E] [E] [E] [E] [E] [E] [E] [E] [E] [E] [E] [E] [E] [E] [E] [E]  
 
 --------------------------|--------------------------|
 --------------------------|--------------------------|
 --6--6--6--6--6--6--6--6--|--7--7--7--7--7--7--7--7--|
 --6--6--6--6--6--6--6--6--|--7--7--7--7--7--7--7--7--|
 --4--4--4--4--4--4--4--4--|--5--5--5--5--5--5--5--5--|
 --------------------------|--------------------------|

[E] [E] [E] [E] [E] [E] [E] [E] [E] [E] [E] [E] [E] [E] [E] [E]  
 
 --------------------------|--------------------------|
 --------------------------|--------------------------|
 --------------------------|--------------------------|
 --7--7--7--7--7--7--7--7--|--6--6--6--6--------------|
 --7--7--7--7--7--7--7--7--|--6--6--6--6--------------|
 --7--7--7--7--7--7--7--7--|--6--6--6--6--------------|

[E] [E] [E] [E] [E] [E] [E] [E] [E] [E] [E] [E] [E] [E] [E] [E]  
 
 --------------------------|--------------------------|
 --------------------------|--------------------------|
 --------------------------|--7--7--7--7--7--7--7--7--|
 --4--4--4--4--4--4--4--4--|--7--7--7--7--7--7--7--7--|
 --4--4--4--4--4--4--4--4--|--5--5--5--5--5--5--5--5--|
 --4--4--4--4--4--4--4--4--|--------------------------|

[E] [E] [E] [E] [E] [E] [E] [E] [E] [E] [E] [E] [E] [E] [E] [E]  
 
 --------------------------|--------------------------|
 --------------------------|--------------------------|
 --------------------------|--------------------------|
 --7--7--7--7--7--7--7--7--|--9--9--9--9--9-----------|
 --7--7--7--7--7--7--7--7--|--6--6--6--6--6-----------|
 --7--7--7--7--7--7--7--7--|--6--6--6--6--6-----------|

E S E S E E E E E H H E S E S E E E E E
 
 ---------------------------|--------------------|---------------------------|
 ---------------------------|--------------------|---------------------------|
 ---------------------------|--------------------|---------------------------|
 --4----4----2--4-----------|-----------2--------|--4----4----2--4-----------|
 --4----4----2--4-----------|-----------2--------|--4----4----2--4-----------|
 --4----4----2--4-----------|-----------2--------|--4----4----2--4-----------|

PM PM PM PM PM PM PM PM PM PM PM PM PM PM PM PM
[B] [B] [E] [E] [E] [E] [E] [E] [E] [E] [E] [E] [E] [E] [E] [E] [E] [E]  
 
 --------------------|--------------------------|--------------------------|
 --------------------|--------------------------|--------------------------|
 --7--------9--------|--------------------------|--------------------------|
 --7--------9--------|--4--4--4--4--4--4--4--4--|--7--7--7--7--7--7--7--7--|
 --5--------7--------|--4--4--4--4--4--4--4--4--|--7--7--7--7--7--7--7--7--|
 --------------------|--4--4--4--4--4--4--4--4--|--7--7--7--7--7--7--7--7--|

PM PM PM PM PM PM PM PM PM PM PM PM PM PM PM PM
[E] [E] [E] [E] [E] [E] [E] [E] [E] [E] [E] [E] [E] [E] [E] [E]  
 
 --------------------------|--------------------------|
 --------------------------|--------------------------|
 --------------------------|--------------------------|
 --6--6--6--6--6--6--6--6--|--5--5--5--5--5--5--5--5--|
 --6--6--6--6--6--6--6--6--|--5--5--5--5--5--5--5--5--|
 --6--6--6--6--6--6--6--6--|--5--5--5--5--5--5--5--5--|

PM PM PM PM PM PM PM PM PM PM PM PM PM PM PM PM
[E] [E] [E] [E] [E] [E] [E] [E] [E] [E] [E] [E] [E] [E] [E] [E]  
 
 --------------------------|--------------------------|
 --------------------------|--------------------------|
 --------------------------|--------------------------|
 --4--4--4--4--4--4--4--4--|--7--7--7--7--7--7--7--7--|
 --4--4--4--4--4--4--4--4--|--7--7--7--7--7--7--7--7--|
 --4--4--4--4--4--4--4--4--|--7--7--7--7--7--7--7--7--|

PM PM PM PM PM PM PM PM PM PM PM PM PM
E E E E E E E E E E E E E E E E Q E E E E E E
 
 --------------------------|--------------------------|-------------------------|
 --------------------------|--------------------------|-------------------------|
 --------------------------|--------------------------|-------------------------|
 --6--6--6--6--6--6--6--6--|--5--5--5--5--5--5--4-----|-------------------------|
 --6--6--6--6--6--6--6--6--|--5--5--5--5--5--5--4-----|-------4--------5-----4--|
 --6--6--6--6--6--6--6--6--|--5--5--5--5--5--5--4-----|--4-------4--4-----4-----|

PH
Q E E E E E E Q E E E E E E Q E E Q Q
 
 -------------------------|-------------------------|--------------------------|
 -------------------------|-------------------------|--------------------------|
 -------------------------|-------------------------|--------------------------|
 -------------------------|-------------------------|--------------------------|
 -------7--------9-----7--|-------7--------9-----7--|--------------------------|
 --7-------7--7-----7-----|--6-------6--6-----6-----|--9----7--6--7----6~----|

Q E E E E E E Q E E E E E E Q E E E E E E
 
 -------------------------|-------------------------|-------------------------|
 -------------------------|-------------------------|-------------------------|
 -------------------------|-------------------------|-------------------------|
 -------------------------|-------------------------|-------------------------|
 -------4--------5-----4--|-------7--------9-----7--|-------7--------9-----7--|
 --4-------4--4-----4-----|--7-------7--7-----7-----|--6-------6--6-----6-----|

PH
Q E E Q Q E E E E E E E E E E E E E E E E
 
 -------------------------|--------------------------|--------------------------|
 -------------------------|--------------------------|--------------------------|
 -------------------------|--------------------------|--7--7--7--7--7--7--7--7--|
 -------------7---------|--4--4--4--4--4--4--4--4--|--7--7--7--7--7--7--7--7--|
 --7----5--4---------7----|--4--4--4--4--4--4--4--4--|--5--5--5--5--5--5--5--5--|
 -------------------------|--4--4--4--4--4--4--4--4--|--------------------------|

[E] [E] [E] [E] [E] [E] [E] [E] [E] [E] [E] [E] [E] [E] [E] [E]  
 
 --------------------------|--------------------------|
 --------------------------|--------------------------|
 --------------------------|--------------------------|
 --7--7--7--7--7--7--7--7--|--9--9--9--9--9--9--9--9--|
 --7--7--7--7--7--7--7--7--|--6--6--6--6--6--6--6--6--|
 --7--7--7--7--7--7--7--7--|--6--6--6--6--6--6--6--6--|

[E] [E] [E] [E] [E] [E] [E] [E] [E] [E] [E] [E] [E] [E] [E] [E]  
 
 --------------------------|--------------------------|
 --------------------------|--------------------------|
 --------------------------|--7--7--7--7--7--7--7--7--|
 --4--4--4--4--4--4--4--4--|--7--7--7--7--7--7--7--7--|
 --4--4--4--4--4--4--4--4--|--5--5--5--5--5--5--5--5--|
 --4--4--4--4--4--4--4--4--|--------------------------|

[E] [E] [E] [E] [E] [E] [E] [E] [E] [E] [E] [E] [E] [E] [E] [E]  
 
 --------------------------|--------------------------|
 --------------------------|--------------------------|
 --------------------------|--------------------------|
 --7--7--7--7--7--7--7--7--|--9--9--9--9--9--9--9--9--|
 --7--7--7--7--7--7--7--7--|--6--6--6--6--6--6--6--6--|
 --7--7--7--7--7--7--7--7--|--6--6--6--6--6--6--6--6--|

[E] [E] [E] [E] [E] [E] [E] [E] [E] [E] [E] [E] [E] [E] [E] [E]  
 
 --------------------------|--------------------------|
 --------------------------|--------------------------|
 --6--6--6--6--6--6--6--6--|--7--7--7--7--7--7--7--7--|
 --6--6--6--6--6--6--6--6--|--7--7--7--7--7--7--7--7--|
 --4--4--4--4--4--4--4--4--|--5--5--5--5--5--5--5--5--|
 --------------------------|--------------------------|

[E] [E] [E] [E] [E] [E] [E] [E] [E] [E] [E] [E] [E] [E] [E] [E]  
 
 --------------------------|--------------------------|
 --------------------------|--------------------------|
 --------------------------|--------------------------|
 --7--7--7--7--7--7--7--7--|--6--6--6--6--------------|
 --7--7--7--7--7--7--7--7--|--6--6--6--6--------------|
 --7--7--7--7--7--7--7--7--|--6--6--6--6--------------|

[E] [E] [E] [E] [E] [E] [E] [E] [E] [E] [E] [E] [E] [E] [E] [E]  
 
 --------------------------|--------------------------|
 --------------------------|--------------------------|
 --------------------------|--7--7--7--7--7--7--7--7--|
 --4--4--4--4--4--4--4--4--|--7--7--7--7--7--7--7--7--|
 --4--4--4--4--4--4--4--4--|--5--5--5--5--5--5--5--5--|
 --4--4--4--4--4--4--4--4--|--------------------------|

[E] [E] [E] [E] [E] [E] [E] [E] [E] [E] [E] [E] [E] [E] [E] [E]  
 
 --------------------------|--------------------------|
 --------------------------|--------------------------|
 --------------------------|--------------------------|
 --7--7--7--7--7--7--7--7--|--9--9--9--9--9--9--9--9--|
 --7--7--7--7--7--7--7--7--|--6--6--6--6--6--6--6--6--|
 --7--7--7--7--7--7--7--7--|--6--6--6--6--6--6--6--6--|

[E] [E] [E] [E] [E] [E] [E] [E] [E] [E] [E] [E] [E] [E] [E] [E]  
 
 --------------------------|--------------------------|
 --------------------------|--------------------------|
 --------------------------|--7--7--7--7--7--7--7--7--|
 --4--4--4--4--4--4--4--4--|--7--7--7--7--7--7--7--7--|
 --4--4--4--4--4--4--4--4--|--5--5--5--5--5--5--5--5--|
 --4--4--4--4--4--4--4--4--|--------------------------|

[E] [E] [E] [E] [E] [E] [E] [E] [E] [E] [E] [E] [E] [E] [E] [E]  
 
 --------------------------|--------------------------|
 --------------------------|--------------------------|
 --------------------------|--------------------------|
 --7--7--7--7--7--7--7--7--|--9--9--9--9--9--9--9--9--|
 --7--7--7--7--7--7--7--7--|--6--6--6--6--6--6--6--6--|
 --7--7--7--7--7--7--7--7--|--6--6--6--6--6--6--6--6--|

[E] [E] [E] [E] [E] [E] [E] [E] [E] [E] [E] [E] [E] [E] [E] [E]  
 
 --------------------------|--------------------------|
 --------------------------|--------------------------|
 --------------------------|--7--7--7--7--7--7--7--7--|
 --4--4--4--4--4--4--4--4--|--7--7--7--7--7--7--7--7--|
 --4--4--4--4--4--4--4--4--|--5--5--5--5--5--5--5--5--|
 --4--4--4--4--4--4--4--4--|--------------------------|

E E E E E E E E E E E E E E E E W
 
 --------------------------|--------------------------|-------------------|
 --------------------------|--------------------------|-------------------|
 --------------------------|--------------------------|-------------------|
 --7--7--7--7--7--7--7--7--|--9--9--9--9--9--9--9--9--|--4----------------|
 --7--7--7--7--7--7--7--7--|--6--6--6--6--6--6--6--6--|--4----------------|
 --7--7--7--7--7--7--7--7--|--6--6--6--6--6--6--6--6--|--4----------------|

W W H H
 
 -------------------|-------------------|--------------------|
 -------------------|-------------------|--------------------|
 -------------------|-------------------|--------------------|
 --L----------------|--L----------------|--L-----------------|
 --L----------------|--L----------------|--L-----------------|
 --L----------------|--L----------------|--L-----------------|

[E] [E] [E] [E] [E] [E] [E] [E] [E] [E] [E] [E] [E] [E] [E] [E]  
 
 --------------------------|--------------------------|
 --------------------------|--------------------------|
 --------------------------|--7--7--7--7--7--7--7--7--|
 --4--4--4--4--4--4--4--4--|--7--7--7--7--7--7--7--7--|
 --4--4--4--4--4--4--4--4--|--5--5--5--5--5--5--5--5--|
 --4--4--4--4--4--4--4--4--|--------------------------|

[E] [E] [E] [E] [E] [E] [E] [E] [E] [E] [E] [E] [E] [E] [E] [E]  
 
 --------------------------|--------------------------|
 --------------------------|--------------------------|
 --------------------------|--------------------------|
 --7--7--7--7--7--7--7--7--|--9--9--9--9--9--9--9--9--|
 --7--7--7--7--7--7--7--7--|--6--6--6--6--6--6--6--6--|
 --7--7--7--7--7--7--7--7--|--6--6--6--6--6--6--6--6--|

[E] [E] [E] [E] [E] [E] [E] [E] [E] [E] [E] [E] [E] [E] [E] [E]  
 
 --------------------------|--------------------------|
 --------------------------|--------------------------|
 --------------------------|--7--7--7--7--7--7--7--7--|
 --4--4--4--4--4--4--4--4--|--7--7--7--7--7--7--7--7--|
 --4--4--4--4--4--4--4--4--|--5--5--5--5--5--5--5--5--|
 --4--4--4--4--4--4--4--4--|--------------------------|

[E] [E] [E] [E] [E] [E] [E] [E] [E] [E] [E] [E] [E] [E] [E] [E]  
 
 --------------------------|--------------------------|
 --------------------------|--------------------------|
 --------------------------|--------------------------|
 --7--7--7--7--7--7--7--7--|--6--6--6--6--x--x--x--x--|
 --7--7--7--7--7--7--7--7--|--6--6--6--6--x--x--x--x--|
 --7--7--7--7--7--7--7--7--|--6--6--6--6--x--x--x--x--|

[E] [E] [E] [E] [E] [E] [E] [E] [E] [E] [E] [E] [E] [E] [E] [E]  
 
 --------------------------|--------------------------|
 --------------------------|--------------------------|
 --------------------------|--7--7--7--7--7--7--7--7--|
 --4--4--4--4--4--4--4--4--|--7--7--7--7--7--7--7--7--|
 --4--4--4--4--4--4--4--4--|--5--5--5--5--5--5--5--5--|
 --4--4--4--4--4--4--4--4--|--------------------------|

[E] [E] [E] [E] [E] [E] [E] [E] [E] [E] [E] [E] [E] [E] [E] [E]  
 
 --------------------------|--------------------------|
 --------------------------|--------------------------|
 --------------------------|--------------------------|
 --7--7--7--7--7--7--7--7--|--9--9--9--9--9--9--9--9--|
 --7--7--7--7--7--7--7--7--|--6--6--6--6--6--6--6--6--|
 --7--7--7--7--7--7--7--7--|--6--6--6--6--6--6--6--6--|

[E] [E] [E] [E] [E] [E] [E] [E] [E] [E] [E] [E] [E] [E] [E] [E]  
 
 --------------------------|--------------------------|
 --------------------------|--------------------------|
 --------------------------|--7--7--7--7--7--7--7--7--|
 --4--4--4--4--4--4--4--4--|--7--7--7--7--7--7--7--7--|
 --4--4--4--4--4--4--4--4--|--5--5--5--5--5--5--5--5--|
 --4--4--4--4--4--4--4--4--|--------------------------|

[E] [E] [E] [E] [E] [E] [E] [E] [E] [E] [E] [E] [E] [E] [E] [E]  
 
 --------------------------|--------------------------|
 --------------------------|--------------------------|
 --------------------------|--------------------------|
 --7--7--7--7--7--7--7--7--|--9--9--9--9--9--9--9--9--|
 --7--7--7--7--7--7--7--7--|--6--6--6--6--6--6--6--6--|
 --7--7--7--7--7--7--7--7--|--6--6--6--6--6--6--6--6--|

[E] [E] [E] [E] [E] [E] [E] [E] [E] [E] [E] [E] [E] [E] [E] [E]  
 
 --------------------------|--------------------------|
 --------------------------|--------------------------|
 --------------------------|--7--7--7--7--7--7--7--7--|
 --4--4--4--4--4--4--4--4--|--7--7--7--7--7--7--7--7--|
 --4--4--4--4--4--4--4--4--|--5--5--5--5--5--5--5--5--|
 --4--4--4--4--4--4--4--4--|--------------------------|

[E] [E] [E] [E] [E] [E] [E] [E] [E] [E] [E] [E] [E] [E] [E] [E]  
 
 --------------------------|--------------------------|
 --------------------------|--------------------------|
 --------------------------|--------------------------|
 --7--7--7--7--7--7--7--7--|--9--9--9--9--9--9--9--9--|
 --7--7--7--7--7--7--7--7--|--6--6--6--6--6--6--6--6--|
 --7--7--7--7--7--7--7--7--|--6--6--6--6--6--6--6--6--|

[E] [E] [E] [E] [E] [E] [E] [E] [E] [E] [E] [E] [E] [E] [E] [E]  
 
 --------------------------|--------------------------|
 --------------------------|--------------------------|
 --6--6--6--6--6--6--6--6--|--7--7--7--7--7--7--7--7--|
 --6--6--6--6--6--6--6--6--|--7--7--7--7--7--7--7--7--|
 --4--4--4--4--4--4--4--4--|--5--5--5--5--5--5--5--5--|
 --------------------------|--------------------------|

PM PM PM PM
[E] [E] [E] [E] [E] [E] [E] [E] [E] [E] [E] [E] [E] [E] [E] [E]  
 
 --------------------------|--------------------------|
 --------------------------|--------------------------|
 --------------------------|--------------------------|
 --7--7--7--7--7--7--7--7--|--6--6--6--6--2--2--2--2--|
 --7--7--7--7--7--7--7--7--|--6--6--6--6--2--2--2--2--|
 --7--7--7--7--7--7--7--7--|--6--6--6--6--2--2--2--2--|

[E] [E] [E] [E] [E] [E] [E] [E] [E] [E] [E] [E] [E] [E] [E] [E]  
 
 --------------------------|--------------------------|
 --------------------------|--------------------------|
 --------------------------|--7--7--7--7--7--7--7--7--|
 --4--4--4--4--4--4--4--4--|--7--7--7--7--7--7--7--7--|
 --4--4--4--4--4--4--4--4--|--5--5--5--5--5--5--5--5--|
 --4--4--4--4--4--4--4--4--|--------------------------|

[E] [E] [E] [E] [E] [E] [E] [E] [E] [E] [E] [E] [E] [E] [E] [E]  
 
 --------------------------|--------------------------|
 --------------------------|--------------------------|
 --------------------------|--------------------------|
 --7--7--7--7--7--7--7--7--|--9--9--9--9--9-----------|
 --7--7--7--7--7--7--7--7--|--6--6--6--6--6-----------|
 --7--7--7--7--7--7--7--7--|--6--6--6--6--6-----------|

E S E S E E E E E H H E S E S E E E E E
 
 ---------------------------|--------------------|---------------------------|
 ---------------------------|--------------------|---------------------------|
 ---------------------------|--------------------|---------------------------|
 --4----4----2--4-----------|-----------2--------|--4----4----2--4-----------|
 --4----4----2--4-----------|-----------2--------|--4----4----2--4-----------|
 --4----4----2--4-----------|-----------2--------|--4----4----2--4-----------|

H H E S E S E E E E E
 
 --------------------|---------------------------|
 --------------------|---------------------------|
 --7--------9--------|---------------------------|
 --7--------9--------|--4----4----2--4-----------|
 --5--------7--------|--4----4----2--4-----------|
 --------------------|--4----4----2--4-----------|

PM PM PM PM PM PM PM PM
H S S S S S S S S E S E S E E E E E
 
 -----------------------------------|---------------------------|
 -----------------------------------|---------------------------|
 -----------------------------------|---------------------------|
 -----------2--2--2--2--2--2--2--2--|--4----4----2--4-----------|
 -----------2--2--2--2--2--2--2--2--|--4----4----2--4-----------|
 -----------2--2--2--2--2--2--2--2--|--4----4----2--4-----------|

PM PM PM PM PM PM PM PM PM PM PM PM PM PM PM PM
S S S S S S S S S S S S S S S S E S E S E E E E E
 
 --------------------------------------------------|----------------------------|
 --------------------------------------------------|----------------------------|
 --7--7--7--7--7--7--7--7--9--9--9--9--9--9--9--9--|----------------------------|
 --7--7--7--7--7--7--7--7--9--9--9--9--9--9--9--9--|--4----4----2--4--L\--------|
 --5--5--5--5--5--5--5--5--7--7--7--7--7--7--7--7--|--4----4----2--4--L\--------|
 --------------------------------------------------|--4----4----2--4--L\--------|

W
 
 -------------------||
 -------------------||
 -------------------||
 -------------------||
 -------------------||
 -------------------||

Guitar 2
[E] [E] [E] [E] [E] [E] [E] [E] [E] [E] [E] [E] [E] [E] [E] [E]  
 
 D#||----------------------------------|----------------------------------|
 A#||----------------------------------|----------------------------------|
 F#||------14--18--14------14--18--14--|------14--19--14------14--19--14--|
 C#||--16--------------16--------------|--16--------------16--------------|
 G#||----------------------------------|----------------------------------|
 C#||----------------------------------|----------------------------------|

[E] [E] [E] [E] [E] [E] [E] [E] [E] [E] [E] [E] [E] [E] [E] [E]  
 
 ----------------------------------|----------------------------------|
 ----------------------------------|----------------------------------|
 ------14--18--14------14--18--14--|------13--16--13------13--16--13--|
 --16--------------16--------------|--14--------------14--------------|
 ----------------------------------|----------------------------------|
 ----------------------------------|----------------------------------|

PM
H Q E S S H Q E E H Q Q
 
 --------------------------|-------------------------|-----------------------|
 --------------------------|-----------------12------|-----------------14----|
 --11--------L----L--11-13-|--14--------L------------|-----------------------|
 --------------------------|---------------------12--|--14--------L----------|
 --------------------------|-------------------------|-----------------------|
 --------------------------|-------------------------|-----------------------|

Q E S S H E S E S E S S S S S S S S
 
 ---------------------------|-----------------------------------|
 --12----L--12-14-15--------|---------------------------------9-|
 ---------------------------|---------------11-9----9-11-9-11---|
 ---------------------------|--4----4----2-------11-------------|
 ---------------------------|--4----4----2----------------------|
 ---------------------------|--4----4----2----------------------|

S S S S S S S S S S S S S S S S E S E S E S S S S S S S S
 
 ------------------------------------------|-----------------------------------|
 --10-9-10-12-10-9-10-9----9---------------|---------------------------------9-|
 -----------------------11---11-9----------|---------------11-9----9-11-9-11---|
 ---------------------------------11-9-7-9-|--4----4----2-------11-------------|
 ------------------------------------------|--4----4----2----------------------|
 ------------------------------------------|--4----4----2----------------------|

S S S S S S S S S S S S S S S S H E E Q
 
 --------------------------------------------|--9--------L\----------|-------|
 --10-9-10-12-10-9-10-9----9---------9-10-12-|-----------------------|-------|
 -----------------------11---11-9-11---------|-----------------------|-------|
 --------------------------------------------|-----------------------|-------|
 --------------------------------------------|-----------------------|-------|
 --------------------------------------------|-----------------------|-------|

[B] [E] [E] [E] [E]  
 
 -------|-------|-------|-------|-------|-----------------------|
 -------|-------|-------|-------|-------|-----------------------|
 -------|-------|-------|-------|-------|-----------------------|
 -------|-------|-------|-------|-------|--------------5--4-----|
 -------|-------|-------|-------|-------|--------------5--4-----|
 -------|-------|-------|-------|-------|--------------5--4-----|

PM PM PM PM PM PM PM PM PM PM
[E] [E] [E] [E] [E] [E] [E] [E] [E] [E] [E] [E] [E] [E] [E] [E]  
 
 --------------------------|--------------------------|
 --------------------------|--------------------------|
 --------------------------|--------------------------|
 --------------------------|--------------------------|
 --------4--------5-----4--|--------4--------5-----4--|
 --4--4-----4--4-----4-----|--7--7-----7--7-----7-----|

PM PM PM PM PM PM PM
E E E E E E E E E E E E E E E E Q E E E E E E
 
 --------------------------|--------------------------|-------------------------|
 --------------------------|--------------------------|-------------------------|
 --------------------------|--------------------------|-------------------------|
 --------------------------|--------------------------|-------------------------|
 --------4--------5-----4--|--------2--4--5--4--2-----|-------4--------5-----4--|
 --6--6-----6--6-----6-----|--5--5-----------------5--|--4-------4--4-----4-----|

Q E E E E E E Q E E E E E E Q E E Q Q
 
 -------------------------|-------------------------|-----------------------|
 -------------------------|-------------------------|-----------------------|
 -------------------------|-------------------------|-----------------------|
 -------------------------|-------------------------|-----------------------|
 -------4--------5-----4--|-------4--------5-----4--|--7----5--4------------|
 --7-------7--7-----7-----|--6-------6--6-----6-----|-------------7----6----|

[E] [E] [E] [E] [E] [E] [E] [E] [E] [E] [E] [E] [E] [E] [E] [E]  
 
 -------|--------------------------|--------------------------|
 -------|--------------------------|--------------------------|
 -------|--------------------------|--7--7--7--7--7--7--7--7--|
 -------|--4--4--4--4--4--4--4--4--|--7--7--7--7--7--7--7--7--|
 -------|--4--4--4--4--4--4--4--4--|--5--5--5--5--5--5--5--5--|
 -------|--4--4--4--4--4--4--4--4--|--------------------------|

[E] [E] [E] [E] [E] [E] [E] [E] [E] [E] [E] [E] [E] [E] [E] [E]  
 
 --------------------------|--------------------------|
 --------------------------|--------------------------|
 --------------------------|--------------------------|
 --7--7--7--7--7--7--7--7--|--9--9--9--9--9--9--9--9--|
 --7--7--7--7--7--7--7--7--|--6--6--6--6--6--6--6--6--|
 --7--7--7--7--7--7--7--7--|--6--6--6--6--6--6--6--6--|

[E] [E] [E] [E] [E] [E] [E] [E] [E] [E] [E] [E] [E] [E] [E] [E]  
 
 --------------------------|--------------------------|
 --------------------------|--------------------------|
 --------------------------|--7--7--7--7--7--7--7--7--|
 --4--4--4--4--4--4--4--4--|--7--7--7--7--7--7--7--7--|
 --4--4--4--4--4--4--4--4--|--5--5--5--5--5--5--5--5--|
 --4--4--4--4--4--4--4--4--|--------------------------|

[E] [E] [E] [E] [E] [E] [E] [E] [E] [E] [E] [E] [E] [E] [E] [E]  
 
 --------------------------|--------------------------|
 --------------------------|--------------------------|
 --------------------------|--------------------------|
 --7--7--7--7--7--7--7--7--|--9--9--9--9--9--9--9--9--|
 --7--7--7--7--7--7--7--7--|--6--6--6--6--6--6--6--6--|
 --7--7--7--7--7--7--7--7--|--6--6--6--6--6--6--6--6--|

[E] [E] [E] [E] [E] [E] [E] [E] [E] [E] [E] [E] [E] [E] [E] [E]  
 
 --------------------------|--------------------------|
 --------------------------|--------------------------|
 --6--6--6--6--6--6--6--6--|--7--7--7--7--7--7--7--7--|
 --6--6--6--6--6--6--6--6--|--7--7--7--7--7--7--7--7--|
 --4--4--4--4--4--4--4--4--|--5--5--5--5--5--5--5--5--|
 --------------------------|--------------------------|

[E] [E] [E] [E] [E] [E] [E] [E] [E] [E] [E] [E] [E] [E] [E] [E]  
 
 --------------------------|--------------------------|
 --------------------------|--------------------------|
 --------------------------|--------------------------|
 --7--7--7--7--7--7--7--7--|--6--6--6--6--------------|
 --7--7--7--7--7--7--7--7--|--6--6--6--6--------------|
 --7--7--7--7--7--7--7--7--|--6--6--6--6--------------|

[E] [E] [E] [E] [E] [E] [E] [E] [E] [E] [E] [E] [E] [E] [E] [E]  
 
 --------------------------|--------------------------|
 --------------------------|--------------------------|
 --------------------------|--7--7--7--7--7--7--7--7--|
 --4--4--4--4--4--4--4--4--|--7--7--7--7--7--7--7--7--|
 --4--4--4--4--4--4--4--4--|--5--5--5--5--5--5--5--5--|
 --4--4--4--4--4--4--4--4--|--------------------------|

[E] [E] [E] [E] [E] [E] [E] [E] [E] [E] [E] [E] [E] [E] [E] [E]  
 
 --------------------------|--------------------------|
 --------------------------|--------------------------|
 --------------------------|--------------------------|
 --7--7--7--7--7--7--7--7--|--9--9--9--9--9-----------|
 --7--7--7--7--7--7--7--7--|--6--6--6--6--6-----------|
 --7--7--7--7--7--7--7--7--|--6--6--6--6--6-----------|

E S E S E E E E E H H E S E S E E E E E
 
 ---------------------------|--------------------|---------------------------|
 ---------------------------|--------------------|---------------------------|
 ---------------------------|--------------------|---------------------------|
 --4----4----2--4-----------|-----------2--------|--4----4----2--4-----------|
 --4----4----2--4-----------|-----------2--------|--4----4----2--4-----------|
 --4----4----2--4-----------|-----------2--------|--4----4----2--4-----------|

PM PM PM PM PM PM PM PM PM PM PM PM PM PM PM PM
[B] [B] [E] [E] [E] [E] [E] [E] [E] [E] [E] [E] [E] [E] [E] [E] [E] [E]  
 
 --------------------|--------------------------|--------------------------|
 --------------------|--------------------------|--------------------------|
 --7--------9--------|--------------------------|--------------------------|
 --7--------9--------|--4--4--4--4--4--4--4--4--|--7--7--7--7--7--7--7--7--|
 --5--------7--------|--4--4--4--4--4--4--4--4--|--7--7--7--7--7--7--7--7--|
 --------------------|--4--4--4--4--4--4--4--4--|--7--7--7--7--7--7--7--7--|

PM PM PM PM PM PM PM PM PM PM PM PM PM PM PM PM
[E] [E] [E] [E] [E] [E] [E] [E] [E] [E] [E] [E] [E] [E] [E] [E]  
 
 --------------------------|--------------------------|
 --------------------------|--------------------------|
 --------------------------|--------------------------|
 --6--6--6--6--6--6--6--6--|--5--5--5--5--5--5--5--5--|
 --6--6--6--6--6--6--6--6--|--5--5--5--5--5--5--5--5--|
 --6--6--6--6--6--6--6--6--|--5--5--5--5--5--5--5--5--|

PM PM PM PM PM PM PM PM PM PM PM PM PM PM PM PM
[E] [E] [E] [E] [E] [E] [E] [E] [E] [E] [E] [E] [E] [E] [E] [E]  
 
 --------------------------|--------------------------|
 --------------------------|--------------------------|
 --------------------------|--------------------------|
 --4--4--4--4--4--4--4--4--|--7--7--7--7--7--7--7--7--|
 --4--4--4--4--4--4--4--4--|--7--7--7--7--7--7--7--7--|
 --4--4--4--4--4--4--4--4--|--7--7--7--7--7--7--7--7--|

PM PM PM PM PM PM PM PM PM PM PM PM PM
E E E E E E E E E E E E E E E E Q E E E E E E
 
 --------------------------|--------------------------|-------------------------|
 --------------------------|--------------------------|-------------------------|
 --------------------------|--------------------------|-------------------------|
 --6--6--6--6--6--6--6--6--|--5--5--5--5--5--5--4-----|-------------------------|
 --6--6--6--6--6--6--6--6--|--5--5--5--5--5--5--4-----|-------4--------5-----4--|
 --6--6--6--6--6--6--6--6--|--5--5--5--5--5--5--4-----|--4-------4--4-----4-----|

Q E E E E E E Q E E E E E E Q E E Q Q
 
 -------------------------|-------------------------|-----------------------|
 -------------------------|-------------------------|-----------------------|
 -------------------------|-------------------------|-----------------------|
 -------------------------|-------------------------|-----------------------|
 -------4--------5-----4--|-------4--------5-----4--|--7----5--4------------|
 --7-------7--7-----7-----|--6-------6--6-----6-----|-------------7----6----|

Q E E E E E E Q E E E E E E Q E E E E E E
 
 -------------------------|-------------------------|-------------------------|
 -------------------------|-------------------------|-------------------------|
 -------------------------|-------------------------|-------------------------|
 -------------------------|-------------------------|-------------------------|
 -------4--------5-----4--|-------4--------5-----4--|-------4--------5-----4--|
 --4-------4--4-----4-----|--7-------7--7-----7-----|--6-------6--6-----6-----|

Q E E Q Q E E E E E E E E E E E E E E E E
 
 -----------------------|--------------------------|--------------------------|
 -----------------------|--------------------------|--------------------------|
 -----------------------|--------------------------|--7--7--7--7--7--7--7--7--|
 -----------------------|--4--4--4--4--4--4--4--4--|--7--7--7--7--7--7--7--7--|
 --7----5--4------------|--4--4--4--4--4--4--4--4--|--5--5--5--5--5--5--5--5--|
 -------------7----6----|--4--4--4--4--4--4--4--4--|--------------------------|

[E] [E] [E] [E] [E] [E] [E] [E] [E] [E] [E] [E] [E] [E] [E] [E]  
 
 --------------------------|--------------------------|
 --------------------------|--------------------------|
 --------------------------|--------------------------|
 --7--7--7--7--7--7--7--7--|--9--9--9--9--9--9--9--9--|
 --7--7--7--7--7--7--7--7--|--6--6--6--6--6--6--6--6--|
 --7--7--7--7--7--7--7--7--|--6--6--6--6--6--6--6--6--|

[E] [E] [E] [E] [E] [E] [E] [E] [E] [E] [E] [E] [E] [E] [E] [E]  
 
 --------------------------|--------------------------|
 --------------------------|--------------------------|
 --------------------------|--7--7--7--7--7--7--7--7--|
 --4--4--4--4--4--4--4--4--|--7--7--7--7--7--7--7--7--|
 --4--4--4--4--4--4--4--4--|--5--5--5--5--5--5--5--5--|
 --4--4--4--4--4--4--4--4--|--------------------------|

[E] [E] [E] [E] [E] [E] [E] [E] [E] [E] [E] [E] [E] [E] [E] [E]  
 
 --------------------------|--------------------------|
 --------------------------|--------------------------|
 --------------------------|--------------------------|
 --7--7--7--7--7--7--7--7--|--9--9--9--9--9--9--9--9--|
 --7--7--7--7--7--7--7--7--|--6--6--6--6--6--6--6--6--|
 --7--7--7--7--7--7--7--7--|--6--6--6--6--6--6--6--6--|

[E] [E] [E] [E] [E] [E] [E] [E] [E] [E] [E] [E] [E] [E] [E] [E]  
 
 --------------------------|--------------------------|
 --------------------------|--------------------------|
 --6--6--6--6--6--6--6--6--|--7--7--7--7--7--7--7--7--|
 --6--6--6--6--6--6--6--6--|--7--7--7--7--7--7--7--7--|
 --4--4--4--4--4--4--4--4--|--5--5--5--5--5--5--5--5--|
 --------------------------|--------------------------|

[E] [E] [E] [E] [E] [E] [E] [E] [E] [E] [E] [E] [E] [E] [E] [E]  
 
 --------------------------|--------------------------|
 --------------------------|--------------------------|
 --------------------------|--------------------------|
 --7--7--7--7--7--7--7--7--|--6--6--6--6--------------|
 --7--7--7--7--7--7--7--7--|--6--6--6--6--------------|
 --7--7--7--7--7--7--7--7--|--6--6--6--6--------------|

[B] [E] [E] [E] [E] [B] [E] [E] [E] [E]  
 
 --17--------17--------------|-----------17--------------|
 ----------------17--15--14--|--L------------14----------|
 ----------------------------|-------------------16--14--|
 ----------------------------|---------------------------|
 ----------------------------|---------------------------|
 ----------------------------|---------------------------|

Q E E E E E E Q E H E
 
 -------------------------------|-----------------------|
 -----------------------14------|-----------------------|
 --L----L\-----/14--16------16--|--L----L\--------------|
 -------------------------------|-----------------------|
 -------------------------------|-----------------------|
 -------------------------------|-----------------------|

E E E Q E Q H E E E E
 
 --------------16b----L--16----|----------------------------|
 --14--15--14------------------|--17--------14--15--17--17--|
 ------------------------------|----------------------------|
 ------------------------------|----------------------------|
 ------------------------------|----------------------------|
 ------------------------------|----------------------------|

[B] [E] [E] [E] [E]  
 
 ----------------------------|
 ---L------------------------|
 ------------16--14--13------|
 ------------------------14--|
 ----------------------------|
 ----------------------------|
 |--3--| |--3--| |--3--| |--3--| 

E S S S S S S S S S S S S S S S S T T T T
 
 --------------------------------------------------------------13-|
 -----------------------------------------------------13-15-16----|
 --------13-14-16-14-16-14-13-14-16-14-13-14-16-14-13-------------|
 --L--14----------------------------------------------------------|
 -----------------------------------------------------------------|
 -----------------------------------------------------------------|

[B] [E] [E] [E] [E] [B] [B]  
 
 --14--------14----------17b--|--L--------17--------|
 ----------------17--14-------|---------------------|
 -----------------------------|---------------------|
 -----------------------------|---------------------|
 -----------------------------|---------------------|
 -----------------------------|---------------------|

S S S S S S S S S S S S S S S S
 
 --17-12----12-17-12-19-12-17-12----12-17-12-------|
 --------14----------------------14----------14----|
 -----------------------------------------------14-|
 --------------------------------------------------|
 --------------------------------------------------|
 --------------------------------------------------|

|--3--|
S S S S S S S S S S S S S S S S S W
 
 --19-16----16-19-16-21-16-19-16-------------------16-|--17----------------|
 --------17----------------------17-------------17----|--------------------|
 -----------------------------------16-------16-------|--------------------|
 --------------------------------------14-14----------|--------------------|
 -----------------------------------------------------|--------------------|
 -----------------------------------------------------|--------------------|

W W H H
 
 --L----------------|--L----------------|--L-----------------|
 -------------------|-------------------|--------------------|
 -------------------|-------------------|--------------------|
 -------------------|-------------------|--------------------|
 -------------------|-------------------|--------------------|
 -------------------|-------------------|--------------------|

[E] [E] [E] [E] [E] [E] [E] [E] [E] [E] [E] [E] [E] [E] [E] [E]  
 
 --------------------------|--------------------------|
 --------------------------|--------------------------|
 --------------------------|--7--7--7--7--7--7--7--7--|
 --4--4--4--4--4--4--4--4--|--7--7--7--7--7--7--7--7--|
 --4--4--4--4--4--4--4--4--|--5--5--5--5--5--5--5--5--|
 --4--4--4--4--4--4--4--4--|--------------------------|

[E] [E] [E] [E] [E] [E] [E] [E] [E] [E] [E] [E] [E] [E] [E] [E]  
 
 --------------------------|--------------------------|
 --------------------------|--------------------------|
 --------------------------|--------------------------|
 --7--7--7--7--7--7--7--7--|--9--9--9--9--9--9--9--9--|
 --7--7--7--7--7--7--7--7--|--6--6--6--6--6--6--6--6--|
 --7--7--7--7--7--7--7--7--|--6--6--6--6--6--6--6--6--|

[B] [E] [E] [E] [E] [B] [E] [E] [E] [E]  
 
 --17--------17--------------|-----------17--------------|
 ----------------17--15--14--|--L------------14----------|
 ----------------------------|-------------------16--14--|
 ----------------------------|---------------------------|
 ----------------------------|---------------------------|
 ----------------------------|---------------------------|

Q E E E E E E Q E E E E E E
 
 -------------------------------|--------------------------|
 -----------------------14------|--------------------------|
 --L----L\-----/14--16------16--|--L----L\-----------------|
 -------------------------------|--------------x--x--x--x--|
 -------------------------------|--------------x--x--x--x--|
 -------------------------------|--------------x--x--x--x--|

[E] [E] [E] [E] [E] [E] [E] [E] [E] [E] [E] [E] [E] [E] [E] [E]  
 
 --------------------------|--------------------------|
 --------------------------|--------------------------|
 --------------------------|--7--7--7--7--7--7--7--7--|
 --4--4--4--4--4--4--4--4--|--7--7--7--7--7--7--7--7--|
 --4--4--4--4--4--4--4--4--|--5--5--5--5--5--5--5--5--|
 --4--4--4--4--4--4--4--4--|--------------------------|

[E] [E] [E] [E] [E] [E] [E] [E] [E] [E] [E] [E] [E] [E] [E] [E]  
 
 --------------------------|--------------------------|
 --------------------------|--------------------------|
 --------------------------|--------------------------|
 --7--7--7--7--7--7--7--7--|--9--9--9--9--9--9--9--9--|
 --7--7--7--7--7--7--7--7--|--6--6--6--6--6--6--6--6--|
 --7--7--7--7--7--7--7--7--|--6--6--6--6--6--6--6--6--|

S S S S S S S S S S S S S S S S
 
 --------------------------------------------------|
 --19-14----19-14----19-14----19-14----19-14-19-14-|
 --------14-------14-------14-------14-------------|
 --------------------------------------------------|
 --------------------------------------------------|
 --------------------------------------------------|

S S S S S S S S S S S S S S S S
 
 --------------------------------------------------|
 --19-15----19-15----19-15----19-15----19-15-19-15-|
 --------14-------14-------14-------14-------------|
 --------------------------------------------------|
 --------------------------------------------------|
 --------------------------------------------------|

S S S S S S S S S S S S S S S S
 
 --------------------------------------------------|
 --17-12----17-12----17-12----17-12----17-12-17-12-|
 --------14-------14-------1

Important: The song above is NOT stored on the Chordie server. The original song is hosted at www.guitaretab.com. Chordie works as a search engine and provides on-the-fly formatting. Chordie does not index songs against artists'/composers' will. To remove this song please click here.

Text color:
Chord color:
Chord grids: 
Font size:    
Page size: 

B E
Rate #1 of 7 versions

Jango Player

Login - add to songbook

SHARE PAGE  




You need to log in to post comments