Guitar Tabs, Chords and Lyrics
Server problems seems to be fixed. Chordie has been experiencing problems with songs disappearing. These issues now seems to be fixed, but still verifying the fix. If you find anything strange, please email admin@chordie.com.


We Don't Belong  Black Veil Brides

 
 ----------------------------------------------------------------------------

We Don?t Belong
Black Veil Brides
 
 ----------------------------------------------------------------------------

Black Veil Brides at their best, and even though the chorus has the same general
chorus as New Year?s Day, it still holds its own for being one of BVB?s best songs. Enjoy!
Username: dkm817 (same on X box live)
Youtube Cover: http://www.youtube.com/watch?v=swAsn52fWiA
Email: guitardrums@rockfan.com
Guitar 1 Rhythmic (C G C F A D)
Guitar 2 Lead (C G C F A D)
Guitar 3 Lead (C G C F A D)
NOTE: This was exported off of guitar pro.
Guitar 1
[E] [E] [E] [E] [E] [E] [E] [E] [E] [E] [E] [E] [E] [E] [E] [E]  
 
 D||----------------------------------|----------------------------------|
 A||----------10--------------10------|----------10--------------10------|
 F||------10------10------10------10--|------10------10------10------10--|
 C||--12--------------12--------------|--11--------------11--------------|
 G||----------------------------------|----------------------------------|
 C||----------------------------------|----------------------------------|

[E] [E] [E] [E] [E] [E] [E] [E] [E] [E] [E] [E] [E] [E] [E] [E]  
 
 ----------------------------------|------------------------------|
 ----------10--------------10------|---------8-------------8------|
 ------10------10------10------10--|-----10-----10-----10-----10--|
 --10--------------10--------------|--9-------------9-------------|
 ----------------------------------|------------------------------|
 ----------------------------------|------------------------------|

PM PM PM PM PM PM PM PM PM PM PM PM PM PM PM PM
[E] [E] [E] [E] [E] [E] [E] [E] [E] [E] [E] [E] [E] [E] [E] [E]  
 
 ----------------------------------|----------------------------------|
 ----------10--------------10------|----------10--------------10------|
 ------10------10------10------10--|------10------10------10------10--|
 --12--------------12--------------|--11--------------11--------------|
 ----------------------------------|----------------------------------|
 ----------------------------------|----------------------------------|

PM PM PM PM PM PM PM PM PM PM PM PM PM PM PM PM
[E] [E] [E] [E] [E] [E] [E] [E] [E] [E] [E] [E] [E] [E] [E] [E]  
 
 ----------------------------------|------------------------------|
 ----------10--------------10------|---------8-------------8------|
 ------10------10------10------10--|-----10-----10-----10-----10--|
 --10--------------10--------------|--9-------------9-------------|
 ----------------------------------|------------------------------|
 ----------------------------------|------------------------------|

PM PM PM PM PM PM PM PM PM PM PM PM PM PM PM PM
[E] [E] [E] [E] [E] [E] [E] [E] [E] [E] [E] [E] [E] [E] [E] [E]  
 
 ------------------------------|------------------------------|
 ---------8-------------8------|---------8-------------8------|
 -----10-----10-----10-----10--|-----10-----10-----10-----10--|
 --8-------------8-------------|--8-------------8-------------|
 ------------------------------|------------------------------|
 ------------------------------|------------------------------|

PM PM PM PM PM PM PM PM PM PM PM PM PM PM PM PM
[E] [E] [E] [E] [E] [E] [E] [E] [E] [E] [E] [E] [E] [E] [E] [E]  
 
 ------------------------------|------------------------------|
 ---------8-------------8------|---------8-------------8------|
 -----10-----10-----10-----10--|-----10-----10-----10-----10--|
 --8-------------8-------------|--8-------------8-------------|
 ------------------------------|------------------------------|
 ------------------------------|------------------------------|

PM PM PM PM PM PM PM PM
[E] [E] [E] [E] [E] [E] [E] [E] [E] [E] [E] [E] [E] [E] [E] [E]  
 
 ----------------------------------|----------------------------------|
 ----------10---L----------10---L--|----------10---L----------10---L--|
 ------10------10------10------10--|------10------10------10------10--|
 --12--------------12--------------|--11--------------11--------------|
 ----------------------------------|----------------------------------|
 ----------------------------------|----------------------------------|

PM PM PM PM PM PM PM PM
[E] [E] [E] [E] [E] [E] [E] [E] [E] [E] [E] [E] [E] [E] [E] [E]  
 
 ----------------------------------|------------------------------|
 ----------10---L----------10---L--|---------8---L---------8---L--|
 ------10------10------10------10--|-----10-----10-----10-----10--|
 --10--------------10--------------|--9-------------9-------------|
 ----------------------------------|------------------------------|
 ----------------------------------|------------------------------|

PM PM PM PM PM PM PM PM
[E] [E] [E] [E] [E] [E] [E] [E] [E] [E] [E] [E] [E] [E] [E] [E]  
 
 ------------------------------|------------------------------|
 ---------8---L---------8---L--|---------8---L---------8---L--|
 -----10-----10-----10-----10--|-----10-----10-----10-----10--|
 --8-------------8-------------|--8-------------8-------------|
 ------------------------------|------------------------------|
 ------------------------------|------------------------------|

PM PM PM PM PM PM PM PM
[E] [E] [E] [E] [E] [E] [E] [E] [E] [E] [E] [E] [E] [E] [E] [E]  
 
 ------------------------------|------------------------------|
 ---------8---L---------8---L--|---------8---L---------8---L--|
 -----10-----10-----10-----10--|-----10-----10-----10-----10--|
 --8-------------8-------------|--8-------------8-------------|
 ------------------------------|------------------------------|
 ------------------------------|------------------------------|

PM PM PM PM PM PM PM PM
[E] [E] [E] [E] [E] [E] [E] [E] [E] [E] [E] [E] [E] [E] [E] [E]  
 
 ----------------------------------|----------------------------------|
 ----------10---L----------10---L--|----------10---L----------10---L--|
 ------10------10------10------10--|------10------10------10------10--|
 --12--------------12--------------|--11--------------11--------------|
 ----------------------------------|----------------------------------|
 ----------------------------------|----------------------------------|

PM PM PM PM PM PM PM PM
[E] [E] [E] [E] [E] [E] [E] [E] [E] [E] [E] [E] [E] [E] [E] [E]  
 
 ----------------------------------|------------------------------|
 ----------10---L----------10---L--|---------8---L---------8---L--|
 ------10------10------10------10--|-----10-----10-----10-----10--|
 --10--------------10--------------|--9-------------9-------------|
 ----------------------------------|------------------------------|
 ----------------------------------|------------------------------|

PM PM PM PM PM PM PM PM
[E] [E] [E] [E] [E] [E] [E] [E] [E] [E] [E] [E] [E] [E] [E] [E]  
 
 ------------------------------|------------------------------|
 ---------8---L---------8---L--|---------8---L---------8---L--|
 -----10-----10-----10-----10--|-----10-----10-----10-----10--|
 --8-------------8-------------|--8-------------8-------------|
 ------------------------------|------------------------------|
 ------------------------------|------------------------------|

PM PM PM PM
[E] [E] [E] [E] [E] [E] [E] [E] [E] [E] [E] [E] [E] [E] [E] [E]  
 
 ------------------------------|-----|--------------------------|
 ---------8---L---------8---L--|-----|--------------------------|
 -----10-----10-----10-----10--|-----|--7--7--7--7--7--7--7--7--|
 --8-------------8-------------|-----|--7--7--7--7--7--7--7--7--|
 ------------------------------|-----|--5--5--5--5--5--5--5--5--|
 ------------------------------|-----|--------------------------|

[E] [E] [E] [E] [E] [E] [E] [E] [E] [E] [E] [E] [E] [E] [E] [E]  
 
 --------------------------|--------------------------|
 --------------------------|--------------------------|
 --------------------------|--------------------------|
 --8--8--8--8--8--8--8--8--|--3--3--3--3--3--3--3--3--|
 --8--8--8--8--8--8--8--8--|--3--3--3--3--3--3--3--3--|
 --8--8--8--8--8--8--8--8--|--3--3--3--3--3--3--3--3--|

[E] [E] [E] [E] [E] [E] [E] [E] [E] [E] [E] [E] [E] [E] [E] [E]  
 
 --------------------------|--------------------------|
 --------------------------|--------------------------|
 --5--5--5--5--5--5--5--5--|--7--7--7--7--7--7--7--7--|
 --5--5--5--5--5--5--5--5--|--7--7--7--7--7--7--7--7--|
 --3--3--3--3--3--3--3--3--|--5--5--5--5--5--5--5--5--|
 --------------------------|--------------------------|

[E] [E] [E] [E] [E] [E] [E] [E] [E] [E] [E] [E] [E] [E] [E] [E]  
 
 --------------------------|--------------------------|
 --------------------------|--------------------------|
 --------------------------|--------------------------|
 --8--8--8--8--8--8--8--8--|--3--3--3--3--3--3--3--3--|
 --8--8--8--8--8--8--8--8--|--3--3--3--3--3--3--3--3--|
 --8--8--8--8--8--8--8--8--|--3--3--3--3--3--3--3--3--|

[E] [E] [E] [E] [E] [E] [E] [E] [E] [E] [E] [E] [E] [E] [E] [E]  
 
 --------------------------|--------------------------|
 --------------------------|--------------------------|
 --5--5--5--5--5--5--5--5--|--7--7--7--7--7--7--7--7--|
 --5--5--5--5--5--5--5--5--|--7--7--7--7--7--7--7--7--|
 --3--3--3--3--3--3--3--3--|--5--5--5--5--5--5--5--5--|
 --------------------------|--------------------------|

[E] [E] [E] [E] [E] [E] [E] [E] [E] [E] [E] [E] [E] [E] [E] [E]  
 
 --------------------------|--------------------------|
 --------------------------|--------------------------|
 --------------------------|--------------------------|
 --8--8--8--8--8--8--8--8--|--3--3--3--3--3--3--3--3--|
 --8--8--8--8--8--8--8--8--|--3--3--3--3--3--3--3--3--|
 --8--8--8--8--8--8--8--8--|--3--3--3--3--3--3--3--3--|

[E] [E] [E] [E] [E] [E] [E] [E] [E] [E] [E] [E] [E] [E] [E] [E]  
 
 --------------------------|--------------------------|
 --------------------------|--------------------------|
 --5--5--5--5--5--5--5--5--|--7--7--7--7--7--7--7--7--|
 --5--5--5--5--5--5--5--5--|--7--7--7--7--7--7--7--7--|
 --2--2--2--2--2--2--2--2--|--5--5--5--5--5--5--5--5--|
 --------------------------|--------------------------|

[E] [E] [E] [E] [E] [E] [E] [E] [E] [E] [E] [E] [E] [E] [E] [E]  
 
 --------------------------|--------------------------|
 --------------------------|--------------------------|
 --------------------------|--------------------------|
 --8--8--8--8--8--8--8--8--|--3--3--3--3--3--3--3--3--|
 --8--8--8--8--8--8--8--8--|--3--3--3--3--3--3--3--3--|
 --8--8--8--8--8--8--8--8--|--3--3--3--3--3--3--3--3--|

E E E E E E E E H H W
 
 --------------------------|------------9---------|--L----------------|
 --------------------------|-----------13b--------|--L----------------|
 --5--5--5--5--5--5--5--5--|----------------------|-------------------|
 --5--5--5--5--5--5--5--5--|----------------------|-------------------|
 --3--3--3--3--3--3--3--3--|----------------------|-------------------|
 --------------------------|----------------------|-------------------|

PM PM PM PM PM PM PM PM
H H W E E E E E E E E
 
 ------------9---------|--L----------------|--------------------------|
 -----------13b--------|--L----------------|--------------------------|
 ----------------------|-------------------|--7--7--7--7--7--7--7--7--|
 ----------------------|-------------------|--7--7--7--7--7--7--7--7--|
 ----------------------|-------------------|--5--5--5--5--5--5--5--5--|
 ----------------------|-------------------|--------------------------|

PM PM PM PM PM PM PM PM PM PM PM PM PM PM PM PM
[E] [E] [E] [E] [E] [E] [E] [E] [E] [E] [E] [E] [E] [E] [E] [E]  
 
 --------------------------|--------------------------|
 --------------------------|--------------------------|
 --6--6--6--6--6--6--6--6--|--5--5--5--5--5--5--5--5--|
 --6--6--6--6--6--6--6--6--|--5--5--5--5--5--5--5--5--|
 --4--4--4--4--4--4--4--4--|--3--3--3--3--3--3--3--3--|
 --------------------------|--------------------------|

PM PM PM PM PM PM PM PM PM PM PM PM PM PM PM PM
[E] [E] [E] [E] [E] [E] [E] [E] [E] [E] [E] [E] [E] [E] [E] [E]  
 
 --------------------------|--------------------------|
 --------------------------|--------------------------|
 --4--4--4--4--4--4--4--4--|--3--3--3--3--3--3--3--3--|
 --4--4--4--4--4--4--4--4--|--3--3--3--3--3--3--3--3--|
 --2--2--2--2--2--2--2--2--|--1--1--1--1--1--1--1--1--|
 --------------------------|--------------------------|

PM PM PM PM PM PM PM PM PM PM PM PM PM PM PM PM
[E] [E] [E] [E] [E] [E] [E] [E] [E] [E] [E] [E] [E] [E] [E] [E]  
 
 --------------------------|--------------------------|
 --------------------------|--------------------------|
 --3--3--3--3--3--3--3--3--|--3--3--3--3--3--3--3--3--|
 --3--3--3--3--3--3--3--3--|--3--3--3--3--3--3--3--3--|
 --1--1--1--1--1--1--1--1--|--1--1--1--1--1--1--1--1--|
 --------------------------|--------------------------|

PM PM PM PM PM PM PM PM PM PM PM PM PM PM PM PM
[E] [E] [E] [E] [E] [E] [E] [E] [E] [E] [E] [E] [E] [E] [E] [E]  
 
 --------------------------|--------------------------|
 --------------------------|--------------------------|
 --3--3--3--3--3--3--3--3--|--7--7--7--7--7--7--7--7--|
 --3--3--3--3--3--3--3--3--|--7--7--7--7--7--7--7--7--|
 --1--1--1--1--1--1--1--1--|--5--5--5--5--5--5--5--5--|
 --------------------------|--------------------------|

PM PM PM PM PM PM PM PM PM PM PM PM PM PM PM PM
[E] [E] [E] [E] [E] [E] [E] [E] [E] [E] [E] [E] [E] [E] [E] [E]  
 
 --------------------------|--------------------------|
 --------------------------|--------------------------|
 --6--6--6--6--6--6--6--6--|--5--5--5--5--5--5--5--5--|
 --6--6--6--6--6--6--6--6--|--5--5--5--5--5--5--5--5--|
 --4--4--4--4--4--4--4--4--|--3--3--3--3--3--3--3--3--|
 --------------------------|--------------------------|

PM PM PM PM PM PM PM PM PM PM PM PM PM PM PM PM
[E] [E] [E] [E] [E] [E] [E] [E] [E] [E] [E] [E] [E] [E] [E] [E]  
 
 --------------------------|--------------------------|
 --------------------------|--------------------------|
 --4--4--4--4--4--4--4--4--|--3--3--3--3--3--3--3--3--|
 --4--4--4--4--4--4--4--4--|--3--3--3--3--3--3--3--3--|
 --2--2--2--2--2--2--2--2--|--1--1--1--1--1--1--1--1--|
 --------------------------|--------------------------|

PM PM PM PM PM PM PM PM PM PM PM PM PM PM PM PM PM
E E E E E E E E E E E E E E E E W
 
 --------------------------|--------------------------|-------------------|
 --------------------------|--------------------------|-------------------|
 --3--3--3--3--3--3--3--3--|--3--3--3--3--3--3--3--3--|--7----------------|
 --3--3--3--3--3--3--3--3--|--3--3--3--3--3--3--3--3--|--7----------------|
 --1--1--1--1--1--1--1--1--|--1--1--1--1--1--1--1--1--|--5----------------|
 --------------------------|--------------------------|-------------------|

[E] [E] [E] [E] [E] [E] [E] [E] [E] [E] [E] [E] [E] [E] [E] [E]  
 
 --------------------------|--------------------------|
 --------------------------|--------------------------|
 --7--7--7--7--7--7--7--7--|--------------------------|
 --7--7--7--7--7--7--7--7--|--8--8--8--8--8--8--8--8--|
 --5--5--5--5--5--5--5--5--|--8--8--8--8--8--8--8--8--|
 --------------------------|--8--8--8--8--8--8--8--8--|

[E] [E] [E] [E] [E] [E] [E] [E] [E] [E] [E] [E] [E] [E] [E] [E]  
 
 --------------------------|--------------------------|
 --------------------------|--------------------------|
 --------------------------|--5--5--5--5--5--5--5--5--|
 --3--3--3--3--3--3--3--3--|--5--5--5--5--5--5--5--5--|
 --3--3--3--3--3--3--3--3--|--3--3--3--3--3--3--3--3--|
 --3--3--3--3--3--3--3--3--|--------------------------|

[E] [E] [E] [E] [E] [E] [E] [E] [E] [E] [E] [E] [E] [E] [E] [E]  
 
 --------------------------|--------------------------|
 --------------------------|--------------------------|
 --7--7--7--7--7--7--7--7--|--------------------------|
 --7--7--7--7--7--7--7--7--|--8--8--8--8--8--8--8--8--|
 --5--5--5--5--5--5--5--5--|--8--8--8--8--8--8--8--8--|
 --------------------------|--8--8--8--8--8--8--8--8--|

[E] [E] [E] [E] [E] [E] [E] [E] [E] [E] [E] [E] [E] [E] [E] [E]  
 
 --------------------------|--------------------------|
 --------------------------|--------------------------|
 --------------------------|--5--5--5--5--5--5--5--5--|
 --3--3--3--3--3--3--3--3--|--5--5--5--5--5--5--5--5--|
 --3--3--3--3--3--3--3--3--|--3--3--3--3--3--3--3--3--|
 --3--3--3--3--3--3--3--3--|--------------------------|

[E] [E] [E] [E] [E] [E] [E] [E] [E] [E] [E] [E] [E] [E] [E] [E]  
 
 --------------------------|--------------------------|
 --------------------------|--------------------------|
 --7--7--7--7--7--7--7--7--|--------------------------|
 --7--7--7--7--7--7--7--7--|--8--8--8--8--8--8--8--8--|
 --5--5--5--5--5--5--5--5--|--8--8--8--8--8--8--8--8--|
 --------------------------|--8--8--8--8--8--8--8--8--|

[E] [E] [E] [E] [E] [E] [E] [E] [E] [E] [E] [E] [E] [E] [E] [E]  
 
 --------------------------|--------------------------|
 --------------------------|--------------------------|
 --------------------------|--5--5--5--5--5--5--5--5--|
 --3--3--3--3--3--3--3--3--|--5--5--5--5--5--5--5--5--|
 --3--3--3--3--3--3--3--3--|--2--2--2--2--2--2--2--2--|
 --3--3--3--3--3--3--3--3--|--------------------------|

[E] [E] [E] [E] [E] [E] [E] [E] [E] [E] [E] [E] [E] [E] [E] [E]  
 
 --------------------------|--------------------------|
 --------------------------|--------------------------|
 --7--7--7--7--7--7--7--7--|--------------------------|
 --7--7--7--7--7--7--7--7--|--8--8--8--8--8--8--8--8--|
 --5--5--5--5--5--5--5--5--|--8--8--8--8--8--8--8--8--|
 --------------------------|--8--8--8--8--8--8--8--8--|

[E] [E] [E] [E] [E] [E] [E] [E] [E] [E] [E] [E] [E] [E] [E] [E]  
 
 --------------------------|--------------------------|
 --------------------------|--------------------------|
 --------------------------|--5--5--5--5--5--5--5--5--|
 --3--3--3--3--3--3--3--3--|--5--5--5--5--5--5--5--5--|
 --3--3--3--3--3--3--3--3--|--3--3--3--3--3--3--3--3--|
 --3--3--3--3--3--3--3--3--|--------------------------|

PM PM PM PM PH
E E E E E E E E E E E E E E Q
 
 --------------------------|----------------------------|
 --------------------------|----------------------------|
 --------------------------|----------------------------|
 --0--0-----0--0-----0--0--|-----0-----0----------------|
 --0--0-----0--0-----0--0--|-----0-----0--------5b----|
 --0--0-----0--0-----0--0--|-----0-----0--3--0----------|

PM PM PM PM PH
|-3-|
E E E E E E E E E E E E S S S E Q
 
 --------------------------|-------------------------------|
 --------------------------|-------------------------------|
 --------------------------|-------------------------------|
 --0--0-----0--0-----0--0--|-----0-----0-------------------|
 --0--0-----0--0-----0--0--|-----0-----0-----------5b----|
 --0--0-----0--0-----0--0--|-----0-----0--5-7-5-0----------|

PM PM PM PM PH
E E E E E E E E E E E E E E Q
 
 --------------------------|----------------------------|
 --------------------------|----------------------------|
 --------------------------|----------------------------|
 --0--0-----0--0-----0--0--|-----0-----0----------------|
 --0--0-----0--0-----0--0--|-----0-----0--------5b----|
 --0--0-----0--0-----0--0--|-----0-----0--3--0----------|

PM PM PM PM PH
|-3-|
E E E E E E E E E E E E S S S E Q
 
 --------------------------|-------------------------------|
 --------------------------|-------------------------------|
 --------------------------|-------------------------------|
 --0--0-----0--0-----0--0--|-----0-----0-------------------|
 --0--0-----0--0-----0--0--|-----0-----0-------------------|
 --0--0-----0--0-----0--0--|-----0-----0--5-7-5-0--3b----|

Q E E E E E E Q E E E E E E
 
 --------------17------------|--------------17------------|
 ----------------------------|----------------------------|
 -------19------------19-----|-------18------------18-----|
 ----------------------------|----------------------------|
 ----------------------------|----------------------------|
 ----------------------------|----------------------------|

Q E E E E E E Q E E E E E E
 
 --------------17------------|--------------16------------|
 ----------------------------|----------------------------|
 -------17------------17-----|-------16------------16-----|
 ----------------------------|----------------------------|
 ----------------------------|----------------------------|
 ----------------------------|----------------------------|

[E] [E] [E] [E] [E] [E] [E] [E] [E] [E] [E] [E] [E] [E] [E] [E]  
 
 ----------------------------------|------15--17------17--------------|
 ----------------------17--18--17--|--18----------18------18----------|
 --15--17--19--17--19--------------|--------------------------19------|
 ----------------------------------|------------------------------20--|
 ----------------------------------|----------------------------------|
 ----------------------------------|----------------------------------|

Q Q Q Q H H E E E E E E E E
 
 --17----------------17b----|--17-----------------|--------------------------|
 --------18-----------------|---------------------|--------------------------|
 --------------19-----------|---------------------|--7--7--7--7--7--7--7--7--|
 ---------------------------|---------------------|--7--7--7--7--7--7--7--7--|
 ---------------------------|---------------------|--5--5--5--5--5--5--5--5--|
 ---------------------------|---------------------|--------------------------|

[E] [E] [E] [E] [E] [E] [E] [E] [E] [E] [E] [E] [E] [E] [E] [E]  
 
 --------------------------|--------------------------|
 --------------------------|--------------------------|
 --------------------------|--------------------------|
 --8--8--8--8--8--8--8--8--|--3--3--3--3--3--3--3--3--|
 --8--8--8--8--8--8--8--8--|--3--3--3--3--3--3--3--3--|
 --8--8--8--8--8--8--8--8--|--3--3--3--3--3--3--3--3--|

[E] [E] [E] [E] [E] [E] [E] [E] [E] [E] [E] [E] [E] [E] [E] [E]  
 
 --------------------------|--------------------------|
 --------------------------|--------------------------|
 --5--5--5--5--5--5--5--5--|--7--7--7--7--7--7--7--7--|
 --5--5--5--5--5--5--5--5--|--7--7--7--7--7--7--7--7--|
 --3--3--3--3--3--3--3--3--|--5--5--5--5--5--5--5--5--|
 --------------------------|--------------------------|

[E] [E] [E] [E] [E] [E] [E] [E] [E] [E] [E] [E] [E] [E] [E] [E]  
 
 --------------------------|--------------------------|
 --------------------------|--------------------------|
 --------------------------|--------------------------|
 --8--8--8--8--8--8--8--8--|--3--3--3--3--3--3--3--3--|
 --8--8--8--8--8--8--8--8--|--3--3--3--3--3--3--3--3--|
 --8--8--8--8--8--8--8--8--|--3--3--3--3--3--3--3--3--|

[E] [E] [E] [E] [E] [E] [E] [E] [E] [E] [E] [E] [E] [E] [E] [E]  
 
 --------------------------|--------------------------|
 --------------------------|--------------------------|
 --5--5--5--5--5--5--5--5--|--7--7--7--7--7--7--7--7--|
 --5--5--5--5--5--5--5--5--|--7--7--7--7--7--7--7--7--|
 --3--3--3--3--3--3--3--3--|--5--5--5--5--5--5--5--5--|
 --------------------------|--------------------------|

[E] [E] [E] [E] [E] [E] [E] [E] [E] [E] [E] [E] [E] [E] [E] [E]  
 
 --------------------------|--------------------------|
 --------------------------|--------------------------|
 --------------------------|--------------------------|
 --8--8--8--8--8--8--8--8--|--3--3--3--3--3--3--3--3--|
 --8--8--8--8--8--8--8--8--|--3--3--3--3--3--3--3--3--|
 --8--8--8--8--8--8--8--8--|--3--3--3--3--3--3--3--3--|

[E] [E] [E] [E] [E] [E] [E] [E] [E] [E] [E] [E] [E] [E] [E] [E]  
 
 --------------------------|--------------------------|
 --------------------------|--------------------------|
 --5--5--5--5--5--5--5--5--|--7--7--7--7--7--7--7--7--|
 --5--5--5--5--5--5--5--5--|--7--7--7--7--7--7--7--7--|
 --2--2--2--2--2--2--2--2--|--5--5--5--5--5--5--5--5--|
 --------------------------|--------------------------|

[E] [E] [E] [E] [E] [E] [E] [E] [E] [E] [E] [E] [E] [E] [E] [E]  
 
 --------------------------|--------------------------|
 --------------------------|--------------------------|
 --------------------------|--------------------------|
 --8--8--8--8--8--8--8--8--|--3--3--3--3--3--3--3--3--|
 --8--8--8--8--8--8--8--8--|--3--3--3--3--3--3--3--3--|
 --8--8--8--8--8--8--8--8--|--3--3--3--3--3--3--3--3--|

[E] [E] [E] [E] [E] [E] [E] [E] [E] [E] [E] [E] [E] [E] [E] [E]  
 
 --------------------------|----------------------------------|
 --------------------------|----------10--------------10------|
 --5--5--5--5--5--5--5--5--|------10------10------10------10--|
 --5--5--5--5--5--5--5--5--|--12--------------12--------------|
 --3--3--3--3--3--3--3--3--|----------------------------------|
 --------------------------|----------------------------------|

[E] [E] [E] [E] [E] [E] [E] [E] [E] [E] [E] [E] [E] [E] [E] [E]  
 
 ----------------------------------|----------------------------------|
 ----------10--------------10------|----------10--------------10------|
 ------10------10------10------10--|------10------10------10------10--|
 --11--------------11--------------|--10--------------10--------------|
 ----------------------------------|----------------------------------|
 ----------------------------------|----------------------------------|

W W
 
 -------------------|-------------------||
 -------------------|-------------------||
 -------------------|-------------------||
 --9----------------|--L----------------||
 -------------------|-------------------||
 -------------------|-------------------||

Guitar 2
PM PM PM PM
Q Q E E E E Q Q E E E E
 
 D||----------------------------|----------------------------|
 A||----------------------------|----------------------------|
 F||------------7--L\--10---L\--|------------7--L\--10---L\--|
 C||------------7--L\--10---L\--|------------7--L\--10---L\--|
 G||----------------------------|----------------------------|
 C||----------------------------|----------------------------|

PM PM PM PM PM PM
Q Q E E E E Q E E E S E S E
 
 ----------------------------|------------------------------|
 ----------------------------|------------------------------|
 ------------7--L\--10---L\--|----------10--10----10----10--|
 ------------7--L\--10---L\--|----------10--10----10----10--|
 ----------------------------|------------------------------|
 ----------------------------|------------------------------|

PM PM PM PM PM PM PM PM PM PM PM PM PM PM PM PM
[E] [E] [E] [E] [E] [E] [E] [E] [E] [E] [E] [E] [E] [E] [E] [E]  
 
 --------------------------|--------------------------|
 --------------------------|--------------------------|
 --7--7--7--7--7--7--7--7--|--6--6--6--6--6--6--6--6--|
 --7--7--7--7--7--7--7--7--|--6--6--6--6--6--6--6--6--|
 --5--5--5--5--5--5--5--5--|--4--4--4--4--4--4--4--4--|
 --------------------------|--------------------------|

PM PM PM PM PM PM PM PM PM PM PM PM PM PM PM PM
[E] [E] [E] [E] [E] [E] [E] [E] [E] [E] [E] [E] [E] [E] [E] [E]  
 
 --------------------------|--------------------------|
 --------------------------|--------------------------|
 --5--5--5--5--5--5--5--5--|--4--4--4--4--4--4--4--4--|
 --5--5--5--5--5--5--5--5--|--4--4--4--4--4--4--4--4--|
 --3--3--3--3--3--3--3--3--|--2--2--2--2--2--2--2--2--|
 --------------------------|--------------------------|

PM PM PM PM PM PM PM PM PM PM PM PM PM PM PM PM
[E] [E] [E] [E] [E] [E] [E] [E] [E] [E] [E] [E] [E] [E] [E] [E]  
 
 --------------------------|--------------------------|
 --------------------------|--------------------------|
 --3--3--3--3--3--3--3--3--|--3--3--3--3--3--3--3--3--|
 --3--3--3--3--3--3--3--3--|--3--3--3--3--3--3--3--3--|
 --1--1--1--1--1--1--1--1--|--1--1--1--1--1--1--1--1--|
 --------------------------|--------------------------|

PM PM PM PM PM PM PM PM PM PM PM PM PM PM PM PM
[E] [E] [E] [E] [E] [E] [E] [E] [E] [E] [E] [E] [E] [E] [E] [E]  
 
 --------------------------|--------------------------|
 --------------------------|--------------------------|
 --3--3--3--3--3--3--3--3--|--3--3--3--3--3--3--3--3--|
 --3--3--3--3--3--3--3--3--|--3--3--3--3--3--3--3--3--|
 --1--1--1--1--1--1--1--1--|--1--1--1--1--1--1--1--1--|
 --------------------------|--------------------------|

PM PM PM PM PM PM PM PM PM PM PM PM PM PM PM PM
[E] [E] [E] [E] [E] [E] [E] [E] [E] [E] [E] [E] [E] [E] [E] [E]  
 
 --------------------------|--------------------------|
 --------------------------|--------------------------|
 --7--7--7--7--7--7--7--7--|--6--6--6--6--6--6--6--6--|
 --7--7--7--7--7--7--7--7--|--6--6--6--6--6--6--6--6--|
 --5--5--5--5--5--5--5--5--|--4--4--4--4--4--4--4--4--|
 --------------------------|--------------------------|

PM PM PM PM PM PM PM PM PM PM PM PM PM PM PM PM
[E] [E] [E] [E] [E] [E] [E] [E] [E] [E] [E] [E] [E] [E] [E] [E]  
 
 --------------------------|--------------------------|
 --------------------------|--------------------------|
 --5--5--5--5--5--5--5--5--|--4--4--4--4--4--4--4--4--|
 --5--5--5--5--5--5--5--5--|--4--4--4--4--4--4--4--4--|
 --3--3--3--3--3--3--3--3--|--2--2--2--2--2--2--2--2--|
 --------------------------|--------------------------|

PM PM PM PM PM PM PM PM PM PM PM PM PM PM PM PM
[E] [E] [E] [E] [E] [E] [E] [E] [E] [E] [E] [E] [E] [E] [E] [E]  
 
 --------------------------|--------------------------|
 --------------------------|--------------------------|
 --3--3--3--3--3--3--3--3--|--3--3--3--3--3--3--3--3--|
 --3--3--3--3--3--3--3--3--|--3--3--3--3--3--3--3--3--|
 --1--1--1--1--1--1--1--1--|--1--1--1--1--1--1--1--1--|
 --------------------------|--------------------------|

PM PM PM PM PM PM PM PM PM PM PM PM PM PM PM PM
[E] [E] [E] [E] [E] [E] [E] [E] [E] [E] [E] [E] [E] [E] [E] [E]  
 
 --------------------------|--------------------------|
 --------------------------|--------------------------|
 --3--3--3--3--3--3--3--3--|--3--3--3--3--3--3--3--3--|
 --3--3--3--3--3--3--3--3--|--3--3--3--3--3--3--3--3--|
 --1--1--1--1--1--1--1--1--|--1--1--1--1--1--1--1--1--|
 --------------------------|--------------------------|

PM PM PM PM PM PM PM PM PM PM PM PM PM PM PM PM
[E] [E] [E] [E] [E] [E] [E] [E] [E] [E] [E] [E] [E] [E] [E] [E]  
 
 --------------------------|--------------------------|
 --------------------------|--------------------------|
 --7--7--7--7--7--7--7--7--|--6--6--6--6--6--6--6--6--|
 --7--7--7--7--7--7--7--7--|--6--6--6--6--6--6--6--6--|
 --5--5--5--5--5--5--5--5--|--4--4--4--4--4--4--4--4--|
 --------------------------|--------------------------|

PM PM PM PM PM PM PM PM PM PM PM PM PM PM PM PM
[E] [E] [E] [E] [E] [E] [E] [E] [E] [E] [E] [E] [E] [E] [E] [E]  
 
 --------------------------|--------------------------|
 --------------------------|--------------------------|
 --5--5--5--5--5--5--5--5--|--4--4--4--4--4--4--4--4--|
 --5--5--5--5--5--5--5--5--|--4--4--4--4--4--4--4--4--|
 --3--3--3--3--3--3--3--3--|--2--2--2--2--2--2--2--2--|
 --------------------------|--------------------------|

PM PM PM PM PM PM PM PM PM PM PM PM PM PM PM PM
[E] [E] [E] [E] [E] [E] [E] [E] [E] [E] [E] [E] [E] [E] [E] [E]  
 
 --------------------------|--------------------------|
 --------------------------|--------------------------|
 --3--3--3--3--3--3--3--3--|--3--3--3--3--3--3--3--3--|
 --3--3--3--3--3--3--3--3--|--3--3--3--3--3--3--3--3--|
 --1--1--1--1--1--1--1--1--|--1--1--1--1--1--1--1--1--|
 --------------------------|--------------------------|

PM PM PM PM PM PM PM PM PM
E E E E E E E E W E E E E E E E E
 
 --------------------------|-------------------|--------------------------|
 --------------------------|-------------------|--------------------------|
 --3--3--3--3--3--3--3--3--|--7----------------|--7--7--7--7--7--7--7--7--|
 --3--3--3--3--3--3--3--3--|--7----------------|--x--x--x--x--x--x--x--x--|
 --1--1--1--1--1--1--1--1--|--5----------------|--5--5--5--5--5--5--5--5--|
 --------------------------|-------------------|--------------------------|

[E] [E] [E] [E] [E] [E] [E] [E] [E] [E] [E] [E] [E] [E] [E] [E]  
 
 ----------------------------------|----------------------------------|
 ----------------------------------|--10--10--10--10--10--10--10--10--|
 --10--10--10--10--10--10--10--10--|---x---x---x---x---x---x---x---x--|
 ---x---x---x---x---x---x---x---x--|---7---7---7---7---7---7---7---7--|
 ---8---8---8---8---8---8---8---8--|----------------------------------|
 ----------------------------------|----------------------------------|

[E] [E] [E] [E] [E] [E] [E] [E] [E] [E] [E] [E] [E] [E] [E] [E]  
 
 --------------------------|--------------------------|
 --8--8--8--8--8--8--8--8--|--------------------------|
 --x--x--x--x--x--x--x--x--|--7--7--7--7--7--7--7--7--|
 --5--5--5--5--5--5--5--5--|--x--x--x--x--x--x--x--x--|
 --------------------------|--5--5--5--5--5--5--5--5--|
 --------------------------|--------------------------|

[E] [E] [E] [E] [E] [E] [E] [E] [E] [E] [E] [E] [E] [E] [E] [E]  
 
 ----------------------------------|----------------------------------|
 ----------------------------------|--10--10--10--10--10--10--10--10--|
 --10--10--10--10--10--10--10--10--|---x---x---x---x---x---x---x---x--|
 ---x---x---x---x---x---x---x---x--|---7---7---7---7---7---7---7---7--|
 ---8---8---8---8---8---8---8---8--|----------------------------------|
 ----------------------------------|----------------------------------|

[E] [E] [E] [E] [E] [E] [E] [E] [E] [E] [E] [E] [E] [E] [E] [E]  
 
 --------------------------|--------------------------|
 --8--8--8--8--8--8--8--8--|--------------------------|
 --x--x--x--x--x--x--x--x--|--7--7--7--7--7--7--7--7--|
 --5--5--5--5--5--5--5--5--|--x--x--x--x--x--x--x--x--|
 --------------------------|--5--5--5--5--5--5--5--5--|
 --------------------------|--------------------------|

[E] [E] [E] [E] [E] [E] [E] [E] [E] [E] [E] [E] [E] [E] [E] [E]  
 
 ----------------------------------|----------------------------------|
 ----------------------------------|--10--10--10--10--10--10--10--10--|
 --10--10--10--10--10--10--10--10--|---x---x---x---x---x---x---x---x--|
 ---x---x---x---x---x---x---x---x--|---7---7---7---7---7---7---7---7--|
 ---8---8---8---8---8---8---8---8--|----------------------------------|
 ----------------------------------|----------------------------------|

[E] [E] [E] [E] [E] [E] [E] [E] [E] [E] [E] [E] [E] [E] [E] [E]  
 
 --------------------------|--------------------------|
 --------------------------|--------------------------|
 --9--9--9--9--9--9--9--9--|--7--7--7--7--7--7--7--7--|
 --x--x--x--x--x--x--x--x--|--x--x--x--x--x--x--x--x--|
 --7--7--7--7--7--7--7--7--|--5--5--5--5--5--5--5--5--|
 --------------------------|--------------------------|

[E] [E] [E] [E] [E] [E] [E] [E] [E] [E] [E] [E] [E] [E] [E] [E]  
 
 ----------------------------------|----------------------------------|
 ----------------------------------|--10--10--10--10--10--10--10--10--|
 --10--10--10--10--10--10--10--10--|---x---x---x---x---x---x---x---x--|
 ---x---x---x---x---x---x---x---x--|---7---7---7---7---7---7---7---7--|
 ---8---8---8---8---8---8---8---8--|----------------------------------|
 ----------------------------------|----------------------------------|

PM PM
E E E E E E E E W H E E E E
 
 --------------------------|---9-----------------|--L------------------------|
 --8--8--8--8--8--8--8--8--|--13b----------------|--L------------------------|
 --x--x--x--x--x--x--x--x--|---------------------|-----------7--L\--10---L\--|
 --5--5--5--5--5--5--5--5--|---------------------|-----------7--L\--10---L\--|
 --------------------------|---------------------|---------------------------|
 --------------------------|---------------------|---------------------------|

PM PM PM PM
W Q E E E S E S E
 
 ---9-----------------|--L----L----------------------|
 --13b----------------|--L----L----------------------|
 ---------------------|----------10--10----10----10--|
 ---------------------|----------10--10----10----10--|
 ---------------------|------------------------------|
 ---------------------|------------------------------|

PM PM PM PM PM PM PM PM
[E] [E] [E] [E] [E] [E] [E] [E] [E] [E] [E] [E] [E] [E] [E] [E]  
 
 ----------------------------------|----------------------------------|
 ----------10---L----------10---L--|----------10---L----------10---L--|
 ------10------10------10------10--|------10------10------10------10--|
 --12--------------12--------------|--11--------------11--------------|
 ----------------------------------|----------------------------------|
 ----------------------------------|----------------------------------|

PM PM PM PM PM PM PM PM
[E] [E] [E] [E] [E] [E] [E] [E] [E] [E] [E] [E] [E] [E] [E] [E]  
 
 ----------------------------------|------------------------------|
 ----------10---L----------10---L--|---------8---L---------8---L--|
 ------10------10------10------10--|-----10-----10-----10-----10--|
 --10--------------10--------------|--9-------------9-------------|
 ----------------------------------|------------------------------|
 ----------------------------------|------------------------------|

PM PM PM PM PM PM PM PM
[E] [E] [E] [E] [E] [E] [E] [E] [E] [E] [E] [E] [E] [E] [E] [E]  
 
 ------------------------------|------------------------------|
 ---------8---L---------8---L--|---------8---L---------8---L--|
 -----10-----10-----10-----10--|-----10-----10-----10-----10--|
 --8-------------8-------------|--8-------------8-------------|
 ------------------------------|------------------------------|
 ------------------------------|------------------------------|

PM PM PM PM PM PM PM PM
[E] [E] [E] [E] [E] [E] [E] [E] [E] [E] [E] [E] [E] [E] [E] [E]  
 
 ------------------------------|------------------------------|
 ---------8---L---------8---L--|---------8---L---------8---L--|
 -----10-----10-----10-----10--|-----10-----10-----10-----10--|
 --8-------------8-------------|--8-------------8-------------|
 ------------------------------|------------------------------|
 ------------------------------|------------------------------|

S S S S H Q S S S S H Q
 
 -----------------------------|-----------------------------|
 --------------15--------L----|--------------14--------L----|
 --------12-14----------------|--------12-14----------------|
 --12-15----------------------|--12-15----------------------|
 -----------------------------|-----------------------------|
 -----------------------------|-----------------------------|

S S S S H Q S S S S H Q
 
 -----------------------------|-----------------------------|
 --------------13--------L----|--------------12--------L----|
 --------10-12----------------|--------10-12----------------|
 --10-13----------------------|--10-13----------------------|
 -----------------------------|-----------------------------|
 -----------------------------|-----------------------------|

PM PM PM PM PM PM PM PM PM PM PM PM PM PM PM
[E] [E] [E] [E] [E] [E] [E] [E] [E] [E] [E] [E] [E] [E] [E] [E]  
 
 -------------------------------|--------------------------------|
 -----10------------------------|-----13-------------------------|
 ---------12--9------10--9--10--|--9------9----------------------|
 ----------------12-------------|------------12--10--12--10------|
 -------------------------------|----------------------------12--|
 -------------------------------|--------------------------------|

PM PM PM PM PM PM
E E E E E E Q W
 
 ---------------------------------|--------------------|
 ---------------------------------|--------------------|
 ----------12--------------10b----|--10----------------|
 --12--10------12--10--12---------|--------------------|
 ---------------------------------|--------------------|
 ---------------------------------|--------------------|

[E] [E] [E] [E] [E] [E] [E] [E] [E] [E] [E] [E] [E] [E] [E] [E]  
 
 --------------------------|----------------------------------|
 --------------------------|----------------------------------|
 --7--7--7--7--7--7--7--7--|--10--10--10--10--10--10--10--10--|
 --x--x--x--x--x--x--x--x--|---x---x---x---x---x---x---x---x--|
 --5--5--5--5--5--5--5--5--|---8---8---8---8---8---8---8---8--|
 --------------------------|----------------------------------|

[E] [E] [E] [E] [E] [E] [E] [E] [E] [E] [E] [E] [E] [E] [E] [E]  
 
 ----------------------------------|--------------------------|
 --10--10--10--10--10--10--10--10--|--8--8--8--8--8--8--8--8--|
 ---x---x---x---x---x---x---x---x--|--x--x--x--x--x--x--x--x--|
 ---7---7---7---7---7---7---7---7--|--5--5--5--5--5--5--5--5--|
 ----------------------------------|--------------------------|
 ----------------------------------|--------------------------|

[E] [E] [E] [E] [E] [E] [E] [E] [E] [E] [E] [E] [E] [E] [E] [E]  
 
 --------------------------|----------------------------------|
 --------------------------|----------------------------------|
 --7--7--7--7--7--7--7--7--|--10--10--10--10--10--10--10--10--|
 --x--x--x--x--x--x--x--x--|---x---x---x---x---x---x---x---x--|
 --5--5--5--5--5--5--5--5--|---8---8---8---8---8---8---8---8--|
 --------------------------|----------------------------------|

[E] [E] [E] [E] [E] [E] [E] [E] [E] [E] [E] [E] [E] [E] [E] [E]  
 
 ----------------------------------|--------------------------|
 --10--10--10--10--10--10--10--10--|--8--8--8--8--8--8--8--8--|
 ---x---x---x---x---x---x---x---x--|--x--x--x--x--x--x--x--x--|
 ---7---7---7---7---7---7---7---7--|--5--5--5--5--5--5--5--5--|
 ----------------------------------|--------------------------|
 ----------------------------------|--------------------------|

[E] [E] [E] [E] [E] [E] [E] [E] [E] [E] [E] [E] [E] [E] [E] [E]  
 
 --------------------------|----------------------------------|
 --------------------------|----------------------------------|
 --7--7--7--7--7--7--7--7--|--10--10--10--10--10--10--10--10--|
 --x--x--x--x--x--x--x--x--|---x---x---x---x---x---x---x---x--|
 --5--5--5--5--5--5--5--5--|---8---8---8---8---8---8---8---8--|
 --------------------------|----------------------------------|

[E] [E] [E] [E] [E] [E] [E] [E] [E] [E] [E] [E] [E] [E] [E] [E]  
 
 ----------------------------------|--------------------------|
 --10--10--10--10--10--10--10--10--|--------------------------|
 ---x---x---x---x---x---x---x---x--|--9--9--9--9--9--9--9--9--|
 ---7---7---7---7---7---7---7---7--|--x--x--x--x--x--x--x--x--|
 ----------------------------------|--7--7--7--7--7--7--7--7--|
 ----------------------------------|--------------------------|

[E] [E] [E] [E] [E] [E] [E] [E] [E] [E] [E] [E] [E] [E] [E] [E]  
 
 --------------------------|----------------------------------|
 --------------------------|----------------------------------|
 --7--7--7--7--7--7--7--7--|--10--10--10--10--10--10--10--10--|
 --x--x--x--x--x--x--x--x--|---x---x---x---x---x---x---x---x--|
 --5--5--5--5--5--5--5--5--|---8---8---8---8---8---8---8---8--|
 --------------------------|----------------------------------|

[E] [E] [E] [E] [E] [E] [E] [E] [E] [E] [E] [E] [E] [E] [E] [E]  
 
 ----------------------------------|--------------------------|
 --10--10--10--10--10--10--10--10--|--8--8--8--8--8--8--8--8--|
 ---x---x---x---x---x---x---x---x--|--x--x--x--x--x--x--x--x--|
 ---7---7---7---7---7---7---7---7--|--5--5--5--5--5--5--5--5--|
 ----------------------------------|--------------------------|
 ----------------------------------|--------------------------|

PH
Q E Q E Q Q E E E E E E
 
 -----------------------------|------------------------------|
 -----------------------------|------------------------------|
 --12b----L--10----L--------|------------------------------|
 -----------------------12----|--L----10---------------------|
 -----------------------------|-----------12--10--8----------|
 -----------------------------|----------------------12--10--|

PH PM PM PM PM PM PM
Q E Q E Q Q E E E E E E
 
 --------------------------|-------------------------|
 --------------------------|-------------------------|
 --------------------------|-------------------------|
 --5b----L--3----L-------|-------------------------|
 ---------------------5----|--L----3--0--3--0--3--0--|
 --------------------------|-------------------------|

PM PM PM PM PM PM PM
E E S S S S S S S S S S S S S S S S E S S E S S Q
 
 ---------------------------------------|--------1----1-3-3b--3-1------|
 ---------------------------------------|--3-1-3---3----------------3----|
 -------------------------------2-5-2-5-|--------------------------------|
 ---------3--0--3--0--3--5--3-5---------|--------------------------------|
 --5--L\--------------------------------|--------------------------------|
 ---------------------------------------|--------------------------------|

PH
 
 |--3--| |--3--| |--3--| |--3--| |--3--| |--3--| 

T T S S S S S S S S S T T S S S S S S S S S E
 
 --12-13-15-13-12----------------------------------------------------------|
 -----------------15-13-12----------10-12-13-12-10-------------------10--|
 --------------------------15-13-12----------------13-12-10----------------|
 -----------------------------------------------------------13-12-10-------|
 --------------------------------------------------------------------------|
 --------------------------------------------------------------------------|

E E S S S S E E E E H H
 
 -------------------------------------|---------------------|
 --L----------------------------------|---------------------|
 ---------------------10--9--10S--14--|--14-----------------|
 -----12--10-12-10-7\-----------------|---------------------|
 -------------------------------------|---------------------|
 -------------------------------------|---------------------|

Q E E E E E E Q E E E E E E
 
 --------------12------------|--------------10------------|
 ----------------------------|----------------------------|
 -------13------------13-----|-------10------------10-----|
 ----------------------------|----------------------------|
 ----------------------------|----------------------------|
 ----------------------------|----------------------------|

Q E E E E E E E E E E E E E E
 
 --------------16------------|----------------------------------|
 ----------------------------|----------------------------------|
 -------13------------13-----|--------------------------14------|
 ----------------------------|--12--14--15--12--14--15------15--|
 ----------------------------|----------------------------------|
 ----------------------------|----------------------------------|

E E E E E E E E Q Q Q Q
 
 ----------------------------------|---------------------------|
 ----------15------15--------------|--15-----------------------|
 --14--18------14------14------14--|--------14-----------------|
 --------------------------15------|--------------15----15b----|
 ----------------------------------|---------------------------|
 ----------------------------------|---------------------------|

[B] [B] [E] [E] [E] [E] [E] [E] [E] [E]  
 
 ---------------------|--------------------------|
 ---------------------|--------------------------|
 ---------------------|--7--7--7--7--7--7--7--7--|
 --14-----------------|--x--x--x--x--x--x--x--x--|
 ---------------------|--5--5--5--5--5--5--5--5--|
 ---------------------|--------------------------|

[E] [E] [E] [E] [E] [E] [E] [E] [E] [E] [E] [E] [E] [E] [E] [E]  
 
 ----------------------------------|----------------------------------|
 ----------------------------------|--10--10--10--10--10--10--10--10--|
 --10--10--10--10--10--10--10--10--|---x---x---x---x---x---x---x---x--|
 ---x---x---x---x---x---x---x---x

Important: The song above is NOT stored on the Chordie server. The original song is hosted at www.guitaretab.com. Chordie works as a search engine and provides on-the-fly formatting. Chordie does not index songs against artists'/composers' will. To remove this song please click here.

Text color:
Chord color:
Chord grids: 
Font size:    
Page size: 

B E
Rate #1 of 3 versions

Login - add to songbook

SHARE PAGE  




You need to log in to post comments